>
 >
Just For Tonight 1

Just For Tonight 1 Guitar Tabs

One Night Only - Just For Tonight 1 chords, tabs, tablatures, lyrics

Guitar lessons | Add/correct | Request | Top 50 tabs Artists:  A B C D E F G H I J K L M N O P Q R S T U V W X Y Z 0-9

Just For Tonight 1 Guitar Tabs – One Night Only

CD, Sheet music, Poster

Do you like Just For Tonight 1? Share with your friends now
Bass TabsBass Tabs v2ChordsChords v2Chords v3Chords v4TabsTabs v2Tabs v3UkuleleUkulele v2
-----------------------------------------------------------------------------
                      Just For Tonight - One Night Only
-----------------------------------------------------------------------------

Tuning: Standard
Guitar: Lead guitar

Start after guitar-effect intro (0.11s)


INTRO

e|------------------------|------------------------|-----------------------|
B|10-10-10-10-10-10-10-10-|10-10-10-10-10-10-10-10-|10-10-10-10-10-10-10-10|
G|------------------------|12-12-12-11-11-11-11-11-|11-11-11-11-11-11-11-11|
D|------------------------|------------------------|-----------------------|
A|------------------------|------------------------|-----------------------|
E|------------------------|------------------------|-----------------------|

e|-------------------------|------------------------|------------------|
B|-10-10-10-10-10-10-10-10-|-10-10-10-10-10-10-10-10|-8-8-8-8p7-7-7-7-7|
G|-11-11-11-11-11-11-11-11-|-11-11-11-11-11-11-11-11|-7-7-7-7---7-7-7-7|
D|-------------------------|-12-12-12-12-12-12-12-12|-9-9-9-9---9-9-9-9|
A|-------------------------|------------------------|------------------|
E|-------------------------|------------------------|------------------|

e|----------------|----------------------------|------------------------|
B|-3-3-3-3-3-3-3-3|-5-5--5-5-5--5h8-8-8-8-8-8-8|-10-10-10-10-10-10-10-10|
G|-4-4-4-4-4-4-4-4|-6-6--6h7-7--7p6-6-6-6-6-6-6|-11-11-11-11-11-11-11-11|
D|-5-5-5-5-5-5-5-5|-7-7--7-7-7--7-7-7-7-7-7-7-7|-12-12-12-12-12-12-12-12|
A|----------------|----------------------------|------------------------|
E|----------------|----------------------------|------------------------|

e|------------------|----------------|----------------------------|
B|-8-8-8-8p7-7-7-7-7|-3-3-3-3-3-3-3-3|-5-5--5-5-5--5h8-8-8-8-8-8-8|
G|-7-7-7-7---7-7-7-7|-4-4-4-4-4-4-4-4|-6-6--6h7-7--7p6-6-6-6-6-6-6|
D|-9-9-9-9---9-9-9-9|-5-5-5-5-5-5-5-5|-7-7--7-7-7--7-7-7-7-7-7-7-7|
A|------------------|----------------|----------------------------|
E|------------------|----------------|----------------------------|



VERSE:

e|---------------------------|----------------------------|
B|---------------------------|----------------------------|
G|-7------------------7------|-----7--------------7-------|
D|---------7--7----------7--7|--------7--7-----------7--7-|
A|---------------------------|----------------------------|
E|---------------------------|----------------------------|
     Way across the plains,    the lights spell out a code

e|-------------------------------------------------|-----------------------|
B|-------------------------------------5-----------|-----------------5-----|
G|---7-------------------------------------7-7-----|-7------------------7-7|
D|-------------7-7---------------------------------|-------7-7-------------|
A|-------------------------------------------------|-----------------------|
E|-------------------------------------------------|-----------------------|
  No one knows where they'll take us, but we'll search, till we grow old


e|---------------------------|---------------------------|
B|---------------------5-----|-------------------5-------|
G|-7---------------------7-7-|--7--------------------7-7-|
D|---------7--7--------------|--------7--7---------------|
A|---------------------------|---------------------------|
E|---------------------------|---------------------------|
    All the paths the lead, to a single solemn place


e|------------------------------------|-----------------------|
B|----------------------------5-------|-----------------5-----|
G|-7----------------------------7-7---|-7------------------7-7|
D|-----7-7----------------------------|----7-7----------------|
A|------------------------------------|-----------------------|
E|------------------------------------|-----------------------|
   Then we'll stay for a weekend    and leave without a trace



Chorus:

e|-----------------------------|------------------------|
B|-----10-10-10-10-10-10-10-10-|10-10-10-10-10-10-10-10-|
G|-----11-11-11-11-11-11-11-11-|12-12-12-11-11-11-11-11-|
D|-----12-12-12-12-12-12-12-12-|12-12-12-12-12-12-12-12-|
A|-----------------------------|------------------------|
E|-----------------------------|------------------------|
                                        Just for tonight

e|------------------|----------------|-----------------|-------------------|
B|--7-7-7-7-7-7-7-7-|8-8-8-7-7-7-7-7-|-8-8-8-8-8-8-8-8-|10-10-10-8-8-8-8-8-|
G|--7-7-7-7-7-7-7-7-|7-7-7-7-7-7-7-7-|-7-7-7-7-7-7-7-7-|-7--7--7-7-7-7-7-7-|
D|--9-9-9-9-9-9-9-9-|9-9-9-9-9-9-9-9-|-9-9-9-9-9-9-9-9-|-9--9--9-9-9-9-9-9-|
A|------------------|----------------|-----------------|-------------------|
E|------------------|----------------|-----------------|-------------------|
                         Just made we've made it                 Sing like you

e|----------------|-----------------------------|-------------------------|
B|-5-5-5-5-5-5-5-5|-8-8-8-8-8-8-8-8-------------|-10-10-10-10-10-10-10-10-|
G|-5-5-5-5-6-6-6-6|-5-5-5-5-5-5-5-5-------------|-11-11-11-11-11-11-11-11-|
D|-7-7-7-7-7-7-7-7|-7-7-7-7-7-7-7-7-------------|-12-12-12-12-12-12-12-12-|
A|----------------|-----------------------------|-------------------------|
E|----------------|-----------------------------|-------------------------|
  want this               Sing like you want thi-is

e|------------------------|----------------|----------------|---------------|
B|10-10-10-10-10-10-10-10-|7-7-7-7-7-7-7-7-|8-8-8-7-7-7-7-7-|8-8-8-8-8-8-8-8|
G|12-12-12-11-11-11-11-11-|7-7-7-7-7-7-7-7-|7-7-7-7-7-7-7-7-|7-7-7-7-7-7-7-7|
D|12-12-12-12-12-12-12-12-|9-9-9-9-9-9-9-9-|9-9-9-9-9-9-9-9-|9-9-9-9-9-9-9-9|
A|------------------------|----------------|----------------|---------------|
E|------------------------|----------------|----------------|---------------|
          Just for tonight                        Just made we've made it 

e|-------------------|----------------|-----------------|
B|10-10-10-8-8-8-8-8-|-5-5-5-5-5-5-5-5|-8-8-8-8-8-8-8-8-|
G|-7--7--7-7-7-7-7-7-|-5-5-5-5-6-6-6-6|-5-5-5-5-5-5-5-5-|
D|-9--9--9-9-9-9-9-9-|-7-7-7-7-7-7-7-7|-7-7-7-7-7-7-7-7-|
A|-------------------|----------------|-----------------|
E|-------------------|----------------|-----------------|
           Sing like you want this            Sing like you want thi-is

Pre-Verse:

e|-------------------------|------------------------|
B|-10-10-10---10-10-10-10--|-10-10-10---10-10-10-10-|
G|-11-11-11---11-11-11-11--|-11-11-11---11-11-11-11-|
D|-12-12-12---12-12-12-12--|-12-12-12---12-12-12-12-|
A|-------------------------|------------------------|
E|-------------------------|------------------------|

e|------------------|----------------|-----------------|-----------------|
B|--7-7-7---7-7-7-7-|7-7-7---7-7-7-7-|-3-3-3---3-3-3-3-|-3-3-3---3-3-3-3-|
G|--7-7-7---7-7-7-7-|7-7-7---7-7-7-7-|-4-4-4---4-4-4-4-|-4-4-4---4-4-4-4-|
D|--9-9-9---9-9-9-9-|9-9-9---9-9-9-9-|-5-5-5---5-5-5-5-|-5-5-5---5-5-5-5-|
A|------------------|----------------|-----------------|-----------------|
E|------------------|----------------|-----------------|-----------------|

e|----------------|----------------|
B|-5-5---5-5-5---5|8-8-8-8-8-8-8-8-|
G|-5-5---5-6-6---6|5-5-5-5-5-5-5-5-|
D|-7-7---7-7-7---7|7-7-7-7-7-7-7-7-|
A|----------------|----------------|
E|----------------|----------------|


VERSE:

e|---------------------------|----------------------------|
B|---------------------------|----------------------------|
G|-7------------------7------|-----7--------------7-------|
D|---------7--7----------7--7|--------7--7-----------7--7-|
A|---------------------------|----------------------------|
E|---------------------------|----------------------------|
     We can take tonight,       take our time

e|---------------------------------------|-----------------------|
B|-------------------------5-------------|-----------------5-----|
G|---7-------------------------7-7-------|-7------------------7-7|
D|-------------7-7-----------------------|-------7-7-------------|
A|---------------------------------------|-----------------------|
E|---------------------------------------|-----------------------|
  So sing like you need this, and be who you want to


e|---------------------------|---------------------------|
B|---------------------5-----|-------------------5-------|
G|-7---------------------7-7-|--7--------------------7-7-|
D|---------7--7--------------|--------7--7---------------|
A|---------------------------|---------------------------|
E|---------------------------|---------------------------|
    All the paths the lead, to a little standing place


e|------------------------------------|-----------------------|
B|----------------------------5-------|-----------------5-----|
G|-7----------------------------7-7---|-7------------------7-7|
D|-----7-7----------------------------|----7-7----------------|
A|------------------------------------|-----------------------|
E|------------------------------------|-----------------------|
  And if you stay for the weekend,   we'd leave without a trace



Chorus:

e|-----------------------------|------------------------|
B|-----10-10-10-10-10-10-10-10-|10-10-10-10-10-10-10-10-|
G|-----11-11-11-11-11-11-11-11-|12-12-12-11-11-11-11-11-|
D|-----12-12-12-12-12-12-12-12-|12-12-12-12-12-12-12-12-|
A|-----------------------------|------------------------|
E|-----------------------------|------------------------|
                                        Just for tonight

e|------------------|----------------|-----------------|-------------------|
B|--7-7-7-7-7-7-7-7-|8-8-8-7-7-7-7-7-|-8-8-8-8-8-8-8-8-|10-10-10-8-8-8-8-8-|
G|--7-7-7-7-7-7-7-7-|7-7-7-7-7-7-7-7-|-7-7-7-7-7-7-7-7-|-7--7--7-7-7-7-7-7-|
D|--9-9-9-9-9-9-9-9-|9-9-9-9-9-9-9-9-|-9-9-9-9-9-9-9-9-|-9--9--9-9-9-9-9-9-|
A|------------------|----------------|-----------------|-------------------|
E|------------------|----------------|-----------------|-------------------|
                         Just made we've made it                Sing like you

e|----------------|-----------------------------|-------------------------|
B|-5-5-5-5-5-5-5-5|-8-8-8-8-8-8-8-8-------------|-10-10-10-10-10-10-10-10-|
G|-5-5-5-5-6-6-6-6|-5-5-5-5-5-5-5-5-------------|-11-11-11-11-11-11-11-11-|
D|-7-7-7-7-7-7-7-7|-7-7-7-7-7-7-7-7-------------|-12-12-12-12-12-12-12-12-|
A|----------------|-----------------------------|-------------------------|
E|----------------|-----------------------------|-------------------------|
  want this               Sing like you want thi-is

e|------------------------|----------------|----------------|---------------|
B|10-10-10-10-10-10-10-10-|7-7-7-7-7-7-7-7-|8-8-8-7-7-7-7-7-|8-8-8-8-8-8-8-8|
G|12-12-12-11-11-11-11-11-|7-7-7-7-7-7-7-7-|7-7-7-7-7-7-7-7-|7-7-7-7-7-7-7-7|
D|12-12-12-12-12-12-12-12-|9-9-9-9-9-9-9-9-|9-9-9-9-9-9-9-9-|9-9-9-9-9-9-9-9|
A|------------------------|----------------|----------------|---------------|
E|------------------------|----------------|----------------|---------------|
          Just for tonight                        Just made we've made it 

e|-------------------|----------------|-----------------|
B|10-10-10-8-8-8-8-8-|-5-5-5-5-5-5-5-5|-8-8-8-8-8-8-8-8-|
G|-7--7--7-7-7-7-7-7-|-5-5-5-5-6-6-6-6|-5-5-5-5-5-5-5-5-|
D|-9--9--9-9-9-9-9-9-|-7-7-7-7-7-7-7-7|-7-7-7-7-7-7-7-7-|
A|-------------------|----------------|-----------------|
E|-------------------|----------------|-----------------|
           Sing like you want this            Sing like you want thi-is



Bridge:

e|-3-|----|-2-|----|-0-|----|-2-|----|-3-|----|-2-|----|-0-|----|-0--|-0--|
B|-3-|----|-3-|----|-0-|----|-3-|----|-3-|----|-3-|----|-0-|----|-2--|-2--|
G|-4-|----|-2-|----|-0-|----|-2-|----|-4-|----|-2-|----|-0-|----|-0--|-0--|
D|-5-|----|-0-|----|-2-|----|-0-|----|-5-|----|-0-|----|-2-|----|-2--|-2--|
A|-5-|----|---|----|-2-|----|---|----|-5-|----|---|----|-2-|----|-0--|-0--|
E|-3-|----|---|----|-0-|----|---|----|-3-|----|---|----|-0-|----|----|----|
                                       La la la la...

e|-2-|----|-2-|----|-3-|----|-0-|----|-2-|----|-2-|----|-3-|----|
B|-3-|----|-3-|----|-3-|----|-2-|----|-3-|----|-3-|----|-3-|----|
G|-2-|----|-4-|----|-4-|----|-0-|----|-2-|----|-4-|----|-4-|----|
D|-0-|----|-4-|----|-5-|----|-2-|----|-0-|----|-4-|----|-5-|----|
A|---|----|-2-|----|-5-|----|-0-|----|---|----|-2-|----|-5-|----|
E|---|----|---|----|-3-|----|---|----|---|----|---|----|-3-|----|


e|-5-5-5-5-5-5-5---|
B|-5-5-5-5-5-5-5---|
G|-6-6-6-6-6-6-6---|
D|-7-7-7-7-7-7-7---|
A|-7-7-7-7-7-7-7---|
E|-7-7-7-7-7-7-7---|
                                         

Chorus:

e|-----------------------------------|------------------------|
B|-----------10-10-10-10-10-10-10-10-|10-10-10-10-10-10-10-10-|
G|-----------11-11-11-11-11-11-11-11-|12-12-12-11-11-11-11-11-|
D|-----------12-12-12-12-12-12-12-12-|12-12-12-12-12-12-12-12-|
A|-----------------------------------|------------------------|
E|-----------------------------------|------------------------|
  Just for tonight                                      Just for tonight

e|------------------|----------------|-----------------|-------------------|
B|--7-7-7-7-7-7-7-7-|8-8-8-7-7-7-7-7-|-8-8-8-8-8-8-8-8-|10-10-10-8-8-8-8-8-|
G|--7-7-7-7-7-7-7-7-|7-7-7-7-7-7-7-7-|-7-7-7-7-7-7-7-7-|-7--7--7-7-7-7-7-7-|
D|--9-9-9-9-9-9-9-9-|9-9-9-9-9-9-9-9-|-9-9-9-9-9-9-9-9-|-9--9--9-9-9-9-9-9-|
A|------------------|----------------|-----------------|-------------------|
E|------------------|----------------|-----------------|-------------------|
                         Just made we've made it                Sing like you

e|----------------|-----------------------------|-------------------------|
B|-5-5-5-5-5-5-5-5|-8-8-8-8-8-8-8-8-------------|-10-10-10-10-10-10-10-10-|
G|-5-5-5-5-6-6-6-6|-5-5-5-5-5-5-5-5-------------|-11-11-11-11-11-11-11-11-|
D|-7-7-7-7-7-7-7-7|-7-7-7-7-7-7-7-7-------------|-12-12-12-12-12-12-12-12-|
A|----------------|-----------------------------|-------------------------|
E|----------------|-----------------------------|-------------------------|
  want this               Sing like you want thi-is

e|------------------------|----------------|----------------|---------------|
B|10-10-10-10-10-10-10-10-|7-7-7-7-7-7-7-7-|8-8-8-7-7-7-7-7-|8-8-8-8-8-8-8-8|
G|12-12-12-11-11-11-11-11-|7-7-7-7-7-7-7-7-|7-7-7-7-7-7-7-7-|7-7-7-7-7-7-7-7|
D|12-12-12-12-12-12-12-12-|9-9-9-9-9-9-9-9-|9-9-9-9-9-9-9-9-|9-9-9-9-9-9-9-9|
A|------------------------|----------------|----------------|---------------|
E|------------------------|----------------|----------------|---------------|
          Just for tonight                        Just made we've made it 

e|-------------------|----------------|-----------------|--------------|
B|10-10-10-8-8-8-8-8-|-5-5-5-5-5-5-5-5|-8-8-8-8-8-8-8-8-|--------------|
G|-7--7--7-7-7-7-7-7-|-5-5-5-5-6-6-6-6|-5-5-5-5-5-5-5-5-|------------7-|
D|-9--9--9-9-9-9-9-9-|-7-7-7-7-7-7-7-7|-7-7-7-7-7-7-7-7-|------------7-|
A|-------------------|----------------|-----------------|------------5-|
E|-------------------|----------------|-----------------|--------------|
           Sing like you want this            Sing like you want thi-is


Outro:
e|-------------|
B|--5/8-7--8p7-|
G|------------7|
D|-------------|
A|-------------|
E|-------------|



************************************

| /   slide up
| h   hammer-on
| p   pull-off


************************************





Comments


Popular One Night Only tabs & chords
Forget My Name Bass Tabs
Can You Feel It Tonight 2 Chords
Chemistry 2 Chords
All I Want Tabs
Nothing Left Tabs
Sweet Sugar Intro Tabs
This Kingdom Perfect Tabs
You And Me Tabs
Can You Feel It Tonight Ukulele
Long Time Coming Ukulele


Song lyrics



↑ Back to top | Tablatures and chords are parodies/interpretations of the original songs. You may use it for private study, scholarship, research or language learning purposes only
© 2014 AZChords.com Contact us | Privacy policy | DMCA | Add/correct tabs | Request tabs | Top 50 tabs