» » »

Just For Tonight Bass tabs (ver.1)

Artists:  A B C D E F G H I J K L M N O P Q R S T U V W X Y Z # 

Just For Tonight Bass tabs (ver.1)

One Night Only
Rating:
5/5 (2 votes)

Hard to play? Try these video lessons and learn fast.
                this is my first tab hope you like it.
Feel free to leave comments!
Enjoy!


One Night Only - Just For Tonight


Intro


G|------------------------------|---------------------------|-----------------------------|
D|---4-----4----4----4----4-----|----0---0----0----0----0---|-----------------------------|
A|-55---55---55---55---55---5---|-22---22--22---22---22---2-|-----2----2----2----2----2---|
E|------------------------------|---------------------------|--33---33---33---33---33---3-|

G|----------------------------|
D|----------------------------|
A|----4----4-----4----4---4---|
E|-5-5--55---5-5---55---55--5-|


Verse


G|----------------------------------|---------------------------------|
D|----------------------------------|---------------------------------|
A|--5-5-5-5-5-5-5-5-5-5-5-5-5-5-5-5-|-2-2-2-2-2-2-2-2-2-2-2-2-2-2-2-2-|
E|----------------------------------|---------------------------------|
                                                                         x2
G|----------------------------------|----------------------------------|
D|----------------------------------|----------------------------------|
A|----------------------------------|----------------------------------|
E|--3-3-3-3-3-3-3-3-3-3-3-3-3-3-3-3-|--5-5-5-5-5-5-5-5-5-5-5-5-5-5-5-5-|


chorus



G|----------------------------------|---------------------------------|
D|----------------------------------|---------------------------------|
A|--5-5-5-5-5-5-5-5-5-5-5-5-5-5-5-5-|-2-2-2-2-2-2-2-2-2-2-2-2-2-2-2-2-|
E|----------------------------------|---------------------------------|
                                                                         x2
G|----------------------------------|----------------------------------|
D|----------------------------------|----------------------------------|
A|----------------------------------|----------------------------------|
E|--3-3-3-3-3-3-3-3-3-3-3-3-3-3-3-3-|--5-5-5-5-5-5-5-5-5-5-5-5-5-5-5-5-|


after chorus


G|------------------------------|---------------------------|-----------------------------|
D|---4-----4----4----4----4-----|----0---0----0----0----0---|-----------------------------|
A|-55---55---55---55---55---5---|-22---22--22---22---22---2-|-----2----2----2----2----2---|
E|------------------------------|---------------------------|--33---33---33---33---33---3-|

G|----------------------------|
D|----------------------------|
A|----4----4-----4----4---4---|
E|-5-5--55---5-5---55---55--5-|


Verse


G|----------------------------------|---------------------------------|
D|----------------------------------|---------------------------------|
A|--5-5-5-5-5-5-5-5-5-5-5-5-5-5-5-5-|-2-2-2-2-2-2-2-2-2-2-2-2-2-2-2-2-|
E|----------------------------------|---------------------------------|
                                                                         x2
G|----------------------------------|----------------------------------|
D|----------------------------------|----------------------------------|
A|----------------------------------|----------------------------------|
E|--3-3-3-3-3-3-3-3-3-3-3-3-3-3-3-3-|--5-5-5-5-5-5-5-5-5-5-5-5-5-5-5-5-|


chorus



G|----------------------------------|---------------------------------|
D|----------------------------------|---------------------------------|
A|--5-5-5-5-5-5-5-5-5-5-5-5-5-5-5-5-|-2-2-2-2-2-2-2-2-2-2-2-2-2-2-2-2-|
E|----------------------------------|---------------------------------|
                                                                         x2
G|----------------------------------|----------------------------------|
D|----------------------------------|----------------------------------|
A|----------------------------------|----------------------------------|
E|--3-3-3-3-3-3-3-3-3-3-3-3-3-3-3-3-|--5-5-5-5-5-5-5-5-5-5-5-5-5-5-5-5-|


after chorus


G|----------------------------------|---------------------------------|
D|----------------------------------|---------------------------------|
A|---------------5------------------|---------------2-----------------|
E|----------------------------------|---------------------------------|
                                                                         x2
G|----------------------------------|----------------------------------|
D|----------------------------------|----------------------------------|
A|----------------------------------|----------------------------------|
E|---------------3------------------|---------------5------------------|



chorus



G|----------------------------------|---------------------------------|
D|----------------------------------|---------------------------------|
A|--5-5-5-5-5-5-5-5-5-5-5-5-5-5-5-5-|-2-2-2-2-2-2-2-2-2-2-2-2-2-2-2-2-|
E|----------------------------------|---------------------------------|

G|----------------------------------|----------------------------------|
D|----------------------------------|----------------------------------|
A|----------------------------------|----------------------------------|
E|--3-3-3-3-3-3-3-3-3-3-3-3-3-3-3-3-|--5-5-5-5-5-5-5-5-5-5-5-5-5-5-5-5-|
            
Hard to play? Try these video lessons and learn fast. | Correct




comments powered by Disqus
↑ Back to top | Tablatures and chords are parodies/interpretations of the original songs. You may use it for private study, scholarship, research or language learning purposes only