» » »

Just For Tonight Bass tabs (ver.2)

Artists:  A B C D E F G H I J K L M N O P Q R S T U V W X Y Z # 

Just For Tonight Bass tabs (ver.2)

One Night Only
Rating:
0/5 (0 votes)

Hard to play? Try these video lessons and learn fast.
                Intro:
G|-----------------------------------|-----------------------------------|
D|-------4-----4-----4-----4-----4---|-------0-----0-----0-----0-----0---|
A|-5-5-5-----5-----5-----5---5-5---5-|-2-2-2-----2-----2-----2---2-2---2-|
E|-----------------------------------|-----------------------------------|

G|---------------------------------|---------------------------------|
D|---------------------------------|---------------------------------|
A|---------------------------------|---------------------------------|
E|-3-3-3-3-3-3-3-3-3-3-3-3-3-3-3-3-|-5-5-5-5-5-5-5-5-5-5-5-5-5-5-5-5-|

Verse:
G|---------------------------------|---------------------------------|
D|---------------------------------|---------------------------------|
A|-5-5---5-5-5---5-5-5---5-5-5-5-5-|-2-2---2-2-2---2-2-2---2-2-2-2-2-|
E|---------------------------------|---------------------------------|

G|---------------------------------|---------------------------------|
D|---------------------------------|---------------------------------|
A|---------------------------------|---------------------------------|
E|-3-3---3-3-3---3-3-3---3-3-3-3-3-|-5-5---5-5-5---5-5-5---5-5-5-5-5-|

Chorus:
G|---------------------------------|---------------------------------|
D|---------------------------------|---------------------------------|
A|-5-5-5-5-5-5-5-5-5-5-5-5-5-5-5-5-|-2-2-2-2-2-2-2-2-2-2-2-2-2-2-2-2-|
E|---------------------------------|---------------------------------|

G|---------------------------------|---------------------------------|
D|---------------------------------|---------------------------------|
A|---------------------------------|---------------------------------|
E|-3-3-3-3-3-3-3-3-3-3-3-3-3-3-3-3-|-5-5-5-5-5-5-5-5-5-5-5-5-5-5-5-5-|
            
Hard to play? Try these video lessons and learn fast. | Correct




comments powered by Disqus
↑ Back to top | Tablatures and chords are parodies/interpretations of the original songs. You may use it for private study, scholarship, research or language learning purposes only