» » »

Of Mice And Men, They Don't Call It The South For Nothing Tabs (ver.2)

Artists:  A B C D E F G H I J K L M N O P Q R S T U V W X Y Z # 

They Don't Call It The South For Nothing Tabs (ver.2)

Of Mice And Men Tabs
Rating:
2/5 (1 vote)
They Don't Call It The South For Nothing lessons Tabs too difficult? Try these video lessons and learn fast
                -------------------------------------------------------------------------------
          THEY DON’T CALL IT THE SOUTH FOR NOTHING – Of Mice & Men
-------------------------------------------------------------------------------
 INTRO (both gtrs)
|-12+-----------------------------------------------------------------------
|-12+-----------------------------------------------------------------------
|---------------------------------------------------------------------------
|---------------------------------------------------------------------------
|---------------------------------------------5-----------------------------
|-----7-10-0-5-0-7-10-0-5-0-7-10-0-5-0-7-10-0-5--7-10-0-5-0-7-10-0-5-0-5-0--

-----------------------|
-----------------------|
-----------------------|
-----------------------|
-------------------5~--|
-7-10-0-5-0-7-10-0-5~--|

 Gtr. 1 plays top riff

 Gtr. 2:
|---------------------------------------------------------------------------|
|---------------------------------------------------------------------------|
|---------------------------------------------------------------------------|
|---------------------------------------------------------------------------|
|---------------------------------------------------------------------------|
|-7b--------7b--------7b--------7b--------7b--------7b--------7b--------7b--|

 VERSE
 Gtr. 1
|---------------------------------------------------------------------------|
|---------------------------------------------------------------------------|
|---------------------------------------------------------------------------|
|--3-3~------3-------3-3~----------3-3~------3-------3-3~-------------------|
|-0707~--00007-0000-0705~--00-00--0707~--00007-0000-0705~--00000000---------|
|-0-0----0000--0000-0-0----00-00--0-0----0000--0000-0-0----00000000---------|
  . .    ....  .... . .    .. ..  . .    ....  .... . .    .... ...

 Gtr. 2
|---------------------------------------------------------------------------|
|--11-11~------11-------11-6~----------11-11~------11-------11-6~-----------|
|--13-13~------13-------13-9~----------13-13~------13-------13-9~-----------|
|---------------------------------------------------------------------------|
|-0--0-----0000---0000-0--0----00-00--0--0-----0000---0000-0--0----00000000-|
|-0--0-----0000---0000-0--0----00-00--0--0-----0000---0000-0--0----00000000-|
  .  .     ....   .... .  .    .. ..  .  .     ....   .... .  .    .... ...

 BREAKDOWN (both)
|----------------------------------------|
|----------------------------------------|
|----------------------------------------|
|----------------------------------------|
|-000--0000-0000--000--0000-0000-0000----| (2x)
|-000--0000-0000--000--0000-0000-0000----|
  ...  .... ....  ...  . .  .... ....
           
           Gtr. 1
|---------|--------------------------------------------------|
|---------|--------------------------------------------------|
|---------|--------------------------------------------------|
|-0~------|--------------------------------------------------|
|-0~------|--------------------------------------------------| (4x)
|-0~------|-00-777777-00-777777-00-101010101010-00-5p0-5p0---|

 Gtr. 2
|--------------------------------------------------|
|--------------------------------------------------|
|--------------------------------------------------|
|--------------------------------------------------|
|--------------------------------------------------| (2x)
|-00-777777-00-777777-00-101010101010-00-5p0-5p0---|

 Gtr. 2
|---------------------------------------------------------------------------|
|---------------------------------------------------------------------------|
|-7-141414141414-7-141414141414-7-171717171717------------------------------|
|---------------------------------------------------------------------------|
|-5-121212121212-5-121212121212-5-151515151515---12h10h8-15h12--------------|
|----------------------------------------------0----------------------------|

|---------------------------------------------------------------------------|
|---------------------------------------------------------------------------|
|-7-141414141414-7-141414141414---------------------------------------------|
|---------------------------------------------------------------------------|
|-5-121212121212-5-121212121212---12h10h8-15h12---12h10h8-15h12h10h8--------|
|-------------------------------0---------------0---------------------------|
 
  Both Gtrs.                  
|--------------|------------------------------|
|--------------|--6--------6------------------|
|--------------|--9--------9------------------|
|--------------|------------------------------|
|--------------|-0-0-5/10-0-0-777710101010----| (4x)
|-7-10-0-------|-0-0-5/10-0-0-777710101010----|
                 . .      . .
|------------------------------------------------------------|
|-----666~--666-----666~--666-----666~--666-----666~--666----|
|-----999~--999-----999~--999-----999~--999-----999~--999----|
|------------------------------------------------------------|
|-000-----------000-----------000-----------000--------------|
|-000-----------000-----------000-----------000--------------|
  ...           ...           ...           ...
 Breakdown
 Gtar. 1     Gtar. 2
|---------| |-------------------|
|-6666666-| |-------------------|
|-9999999-| |-------------------|
|---------| |-------------------|
|---------| |-------------------|
|---------| |-00-00-00-00-00-00-|

 (both)
|------------------------------------------------------------------------------|
|------------------------------------------------------------------------------|
|------------------------------------------------------------------------------|
|------------------------------------------------------------------------------|
|-00-00-00000-00-0000-00-00000-00-00-0-12/-00-00-00000-00-0000-00-00000-00-00--|
|-00-00-00000-00-0000-00-00000-00-00-0-12/-00-00-00000-00-0000-00-00000-00-00--|
  .. .. ..... .. .... .. ..... .. ..       .. .. ..... .. .... .. ..... .. ..

|-------------------------------------------|
|-------------------------------------------|
|-------------------------------------------|
|-------------------------------------------|
|-00-00-00000-00-0000-00-00000-00-00-008*b--|
|-11-11-11111-11-1111-11-11111-11-11-00-----|
  .. .. ..... .. .... .. ..... .. .. ..
|-------------------------------------------|
|-------------------------------------------|
|-------------------------------------------|
|-------------------------------------------|
|-------------------------------------------|
|-00-00-00000-00-0000-00-00000-00-00-00-00--|

 Play first part of INTRO into another

 BREAKDOWN
|------------------|
|------------------|
|------------------|
|------------------|
|-000-0000-0000----| (4x)
|-000-0000-0000----|

************************************

| /   slide 
| h   hammer-on
| p   pull-off
| ~   vibrato
| +   harmonic
| .   Mute note
| b   Bend
| *   Pinch

************************************
            
Submit corrections

comments powered by Disqus
↑ Back to top | Of Mice And Men Tabs for They Don't Call It The South For Nothing. Lyrics for acoustic guitar and electric guitar. Tablatures and chords are parodies/interpretations of the original songs. You may use it for private study, scholarship, research or language learning purposes only