» » »

Of Mice And Men, My Understandings Tabs (ver.2)

Artists:  A B C D E F G H I J K L M N O P Q R S T U V W X Y Z # 

My Understandings Tabs (ver.2)

Of Mice And Men Tabs
 Rating:
4.4/5 (7 votes)
My Understandings lessons Tabs too difficult? Try these video lessons and learn fast
                -----------------------------------------------------------------------------
     MY UNDERSTANDINGS - Of Mice & Men
-----------------------------------------------------------------------------
 I'm Pretty sure most of its dead on. but if you have any suggestions or comments email 
me or comment. thanks. please rate
Tuning:Drop C (CGCFAD)


Guitar 1 slight distortion w/echo
D|-12*-----|
A|----12*--|
F|---------|   played 14 times. I'm pretty sure
C|---------|
G|---------|
C|---------|

Guitar 2 (comes in after 7th time around of Guitar 1)
D|-0h10h12p10p0--|
A|---------------|
F|---------------| played pretty much untill Shayley starts singing
C|---------------|
G|---------------|
C|---------------|

Guitar 1
D|----------------------------------------------------|
A|----------------------------------------------------|
F|--------0----------0--------------0----------0------|
C|----------0------0---5-5/7------7---7------4--------| played 2X
G|-7--7-9-----3--3-----3-3/5-5--5-------2--2----------|
C|-----------------------------------------------4-2--|

Guitar 1- Slight distortion (easy strum pattern, you should be able to figure it out)
D|----------------------------------------|
A|----------------------------------------|
F|-9---------5---------7---------4--------| 3X
C|-9--(10X)--5--(10X)--7--(10X)--4-(10X)--|
G|-7---------3---------5---------2--------|
C|----------------------------------------|

Both Guitars- distorted
D|----------------------------------------|
A|----------------------------------------|
F|-9---------5---------7---------4--------| 5X
C|-9--(10X)--5--(10X)--7--(10X)--4-(10X)--|
G|-7---------3---------5---------2--------|
C|----------------------------------------|

Outtro
Guitar 2 distorted
D|----|
A|----|
F|----|
C|-2--|
G|-2--|
C|-2--|

Guitar 1- Slightly distorted w/ echo
D|----------------------------------------------------------------|
A|----------------------------------------------------------------|
F|--------0----------0--------------0---------0-------------------|
C|----------0------0---5-5/7------7---7-----4-----------------0~--|
G|-7--7-9-----3--3-----3-3/5-5--5-------2-2-----------------------|
C|----------------------------------------------4-2--7--7--9------|


************************************

| /   slide up
| \   slide down
| h   hammer-on
| p   pull-off
| ~   vibrato
| +   harmonic
| x   Mute note
| b   Bend
| pb  Pre-bend
| br  Bend release
| pbr Pre-bend release
| brb Bend release bend

************************************
            
Submit corrections

comments powered by Disqus
↑ Back to top | Of Mice And Men Tabs for My Understandings. Lyrics for acoustic guitar and electric guitar. Tablatures and chords are parodies/interpretations of the original songs. You may use it for private study, scholarship, research or language learning purposes only