>
 >
Redneck Stomp 1

Redneck Stomp 1 Guitar Tabs

Obituary - Redneck Stomp 1 chords, tabs, tablatures, lyrics

Guitar lessons | Add/correct | Request | Top 50 tabs Artists:  A B C D E F G H I J K L M N O P Q R S T U V W X Y Z 0-9

Redneck Stomp 1 Guitar Tabs – Obituary

CD, Sheet music, Poster

Do you like Redneck Stomp 1? Share with your friends now
Bass TabsTabsTabs v2
Band:  Obituary

Copyright (c)  Roadrunner Records 2005
Version 1.0  July 21, 2005


Legend:
.  - palm mute           /  - slide up to
\  - slide down to       ~  - vibrato
h  - hammer on           b  - Bend
p  - pull off            Suffixes for bend
t  - tap                 f  - full bend    h - half bend
ph - pinched harmonic    q  - quarter bend t - tap bend
*  - see comment         ^  - Hold bend    r release bend
x  - Stuccatto           ~  - vibrato bend
,  - slight palm mute    () - ghost note, sustained note
"  - tremolo note        <> - Trill

Tuning D G C F A D

Riff 1A x1
|-------------------------------------------------------------------|
|-------------------------------------------------------------------|
|-------------------------------------------------------------------|
|--2------------------------------2---------------------------------|
|--2---------3/5----------8\7-8\7-2---------------------------------|
|--0-0-0-0-0-1/3--0-0-0-0-6\5-6\5-0---------------------------------|
     . . . .      . . . .

Riff 1B x5
|-------------------------------------------------------------------|
|-------------------------------------------------------------------|
|-------------------------------------------------------------------|
|--2------------------------------2---------------------------------|
|--2---------3/5----------8\7-8\7-2-3-3-3---------------------------|
|--0-0-0-0-0-1/3--0-0-0-0-6\5-6\5-0-1-1-1---------------------------|
     . . . .      . . . .           . . .

Riff 2 x4
|-------------------------------------------------------------------|
|-------------------------------------------------------------------|
|-------------------------------------------------------------------|
|----------7---9-------9/10-9---------------------------------------|
|----------5---7-------7/8--7---------------------------------------|
|--0-0-0-0-5-0-7-0-0-0-7/8--7---------------------------------------|
   . . . .   .   . . .

Riff 1B x4

Riff 2 x8



Riff 3 x2
|-------------------------------------------------------------------|
|-------------------------------------------------------------------|
|-------------------------------------------------------------------|
|----------6-----------5-----------8-----------7--------------------|
|--2-2-2-2-6---2-2-2-2-5---2-2-2-2-8---2-2-2-2-7--------------------|
|--0-0-0-0-4---0-0-0-0-3--0-0-0-0-6---0-0-0-0-5--------------------|
   . . . .     . . . .     . . . .     . . . .

Riff 4A x3
|-------------------------------------------------------------------|
|-------------------------------------------------------------------|
|-------------------------------------------------------------------|
|-------------------------------------------------------------------|
|--2-2-2-2-2-2-2-2-2-2-2-2--5/6-5/6---------------------------------|
|--0-0-0-0-0-0-0-0-0-00-0--3/4-3/4---------------------------------|
   . . . . . . . . . . . .

Riff 4B x1
|-------------------------------------------------------------------|
|-------------------------------------------------------------------|
|-------------------------------------------------------------------|
|-------------------------------------------------------------------|
|--2-2-2-2-2-2-2-2-2-2-2-2-7/8-7/8---------------------------------|
|--0-0-0-0-0-0-0-0-0-00-0--5/6-5/6---------------------------------|
   . . . . . . . . . . . .

Riff 4A x3

Riff 4B x1

Riff 3 x2

Riff 2 x8

Riff 1A x1

Riff 1B x3

Riff 2 x8

Riff 4A x4

Riff 4B x1

Riff 4A x2 Song fades out after Riff 4A repeats.

END

This song should be 100% perfect. But if there are any corrections, comments, concerns, 





Comments


Popular Obituary tabs & chords
‘Til Death 1 Tabs
Chopped In Half 1 Tabs
Circle Of The Tyrants Tabs
Corrosive Tabs
Dead Silence Tabs
Download Tabs
Immortal Visions 1 Tabs
Lockdown 1 Tabs
Splattered Tabs
World Demise Tabs


Song lyrics



↑ Back to top | Tablatures and chords are parodies/interpretations of the original songs. You may use it for private study, scholarship, research or language learning purposes only
© 2014 AZChords.com Contact us | Privacy policy | DMCA | Add/correct tabs | Request tabs | Top 50 tabs