» » »

Obituary, Redneck Stomp Tabs (ver.2)

Artists:  A B C D E F G H I J K L M N O P Q R S T U V W X Y Z # 

Redneck Stomp Tabs (ver.2)

Obituary Tabs
 Rating:
4/5 (4 votes)
Redneck Stomp lessons Tabs too difficult? Try these video lessons and learn fast
1
                Band:  Obituary

Copyright (c)  Roadrunner Records 2005
Version 1.0 – July 21, 2005


Legend:
.  - palm mute           /  - slide up to
\  - slide down to       ~  - vibrato
h  - hammer on           b  - Bend
p  - pull off            Suffixes for bend
t  - tap                 f  - full bend    h - half bend
ph - pinched harmonic    q  - quarter bend t - tap bend
*  - see comment         ^  - Hold bend    r release bend
x  - Stuccatto           ~  - vibrato bend
,  - slight palm mute    () - ghost note, sustained note
"  - tremolo note        <> - Trill

Tuning D G C F A D

Riff 1A x1
|-------------------------------------------------------------------|
|-------------------------------------------------------------------|
|-------------------------------------------------------------------|
|--2------------------------------2---------------------------------|
|--2---------3/5----------8\7-8\7-2---------------------------------|
|--0-0-0-0-0-1/3--0-0-0-0-6\5-6\5-0---------------------------------|
     . . . .      . . . .

Riff 1B x5
|-------------------------------------------------------------------|
|-------------------------------------------------------------------|
|-------------------------------------------------------------------|
|--2------------------------------2---------------------------------|
|--2---------3/5----------8\7-8\7-2-3-3-3---------------------------|
|--0-0-0-0-0-1/3--0-0-0-0-6\5-6\5-0-1-1-1---------------------------|
     . . . .      . . . .           . . .

Riff 2 x4
|-------------------------------------------------------------------|
|-------------------------------------------------------------------|
|-------------------------------------------------------------------|
|----------7---9-------9/10-9---------------------------------------|
|----------5---7-------7/8--7---------------------------------------|
|--0-0-0-0-5-0-7-0-0-0-7/8--7---------------------------------------|
   . . . .   .   . . .

Riff 1B x4

Riff 2 x8



Riff 3 x2
|-------------------------------------------------------------------|
|-------------------------------------------------------------------|
|-------------------------------------------------------------------|
|----------6-----------5-----------8-----------7--------------------|
|--2-2-2-2-6---2-2-2-2-5---2-2-2-2-8---2-2-2-2-7--------------------|
|--0-0-0-0-4---0-0-0-0-3—--0-0-0-0-6---0-0-0-0-5--------------------|
   . . . .     . . . .     . . . .     . . . .

Riff 4A x3
|-------------------------------------------------------------------|
|-------------------------------------------------------------------|
|-------------------------------------------------------------------|
|-------------------------------------------------------------------|
|--2-2-2-2-2-2-2-2-2-2-2-2--5/6-5/6---------------------------------|
|--0-0-0-0-0-0-0-0-0-0—0-0--3/4-3/4---------------------------------|
   . . . . . . . . . . . .

Riff 4B x1
|-------------------------------------------------------------------|
|-------------------------------------------------------------------|
|-------------------------------------------------------------------|
|-------------------------------------------------------------------|
|--2-2-2-2-2-2-2-2-2-2-2-2—-7/8-7/8---------------------------------|
|--0-0-0-0-0-0-0-0-0-0—0-0--5/6-5/6---------------------------------|
   . . . . . . . . . . . .

Riff 4A x3

Riff 4B x1

Riff 3 x2

Riff 2 x8

Riff 1A x1

Riff 1B x3

Riff 2 x8

Riff 4A x4

Riff 4B x1

Riff 4A x2 Song fades out after Riff 4A repeats.

END

This song should be 100% perfect. But if there are any corrections, comments, concerns, 
            
Submit corrections

comments powered by Disqus
↑ Back to top | Obituary Tabs for Redneck Stomp. Lyrics for acoustic guitar and electric guitar. 1 Tablatures and chords are parodies/interpretations of the original songs. You may use it for private study, scholarship, research or language learning purposes only