» » »

Obituary, Insane Tabs (ver.1)

Artists:  A B C D E F G H I J K L M N O P Q R S T U V W X Y Z # 

Insane Tabs (ver.1)

Obituary Tabs
 Rating:
3.6/5 (7 votes)
Insane lessons Tabs too difficult? Try these video lessons and learn fast
                Cool song, shame there's no other tab.
I don't remember if there is a solo or not so if there is, sorry.

Verse/opening lick:


|--------------------------------|
|--------------------------------|
|--------------------------------|
|--------------------------------|
|-2-----------2-----------2-3----|
|-0--0-0-0-0--0--0-0-0-0--0-1----|
     * * * *     * * * *
|--------------------------------|
|--------------------------------|
|--------------------------------|
|--------------------------4-----|
|-2-----------2----------3-2-----|
|-0--0-0-0-0--0--0-0-0-0-1-------|
     * * * *     * * * *


Chorus lick:

|--------------------------------|
|--------------------------------|
|--------------------------------|
|--5-7---5-7-----------5-7---5-7-|
|--5-7---5-7-----------5-7---5-7-|
|--3-5---3-5---5-5-5-5-3-5---3-5-|
               * * * * 

Bridge lick:

|-----------------------------------------------------|
|-----------------------------------------------------|
|-----------------------------------------------------|
|-----------------------------------------------------|
|--------------------------------------3-3-3-3-2-2----|
|--0-0-0-0--3-3-3-3--5-5-5-5--2-2-2-2-----------------|

|-----------------------------------------------------|
|-----------------------------------------------------|
|-----------------------------------------------------|
|----------3-3-3-3-2-2--------------------------------|
|--0-0-0-0----------------------3-3-3-3-2-2-----------|
|----------------------0-0-0-0------------------------|


After bridge lick:

|------------------------------|--------------------------|
|------------------------------|--------------------------|
|------------------------------|--------------------------|
|--------------------------4---|--------------------------|
|-----------3-5----------3-2-3-|---------3-5----------7-7-|
|--0-0-0-0--1-3--0-0-0-0-1---1-|-0-0-0-0-1-3--0-0-0-0-5-5-|

tell me if anything is missin'
            
Submit corrections

comments powered by Disqus
↑ Back to top | Obituary Tabs for Insane. Lyrics for acoustic guitar and electric guitar. Tablatures and chords are parodies/interpretations of the original songs. You may use it for private study, scholarship, research or language learning purposes only