» » »

Obituary, Circle Of The Tyrants Tabs (ver.1)

Artists:  A B C D E F G H I J K L M N O P Q R S T U V W X Y Z # 

Circle Of The Tyrants Tabs (ver.1)

Obituary Tabs
 Rating:
4/5 (4 votes)
Circle Of The Tyrants lessons Tabs too difficult? Try these video lessons and learn fast
                OBITUARY - CIRCLE OF THE TYRANTS
                              From the Album - CAUSE OF DEATH
                            Copyright - Roadrunner Records 1990
                                  Version 1.0 Oct 8, 2002

                         ~Origionaly Preformed By: Celtic Frost 1985~
                              Music and Lyrics by: T.J. Warrior


For Questions, Comments, Newest Version, or Corrections contact


.  - palm mute           /  - slide up to
\  - slide down to       ~  - vibrato
h  - hammer on           b  - bend
p  - pull off            Suffixes for bend ^
ph - pinched harmonic     f - full bend    h - half bend
*  - see comment          r - release      t - tap bend
X  - Stuccatto            ~ - vibrato bend q - quarter bend
,  - slight palm mute    () - ghost note, sustained note

Tuning: "D"G"C"F"A"D


Riff 1-A          Gtr I
|-----------------------|
|-----------------------|
|-----------------------|
|--------8--------7--6--|
|-----8--6----7---5--4--|
|--0--6-----5-5---------|
   .
                  Gtr II
|-----------------------|
|-----------------------|
|-----------------------|
|--------8--------7--6--|
|-----8--6----7---5--4--|
|-----6-------5---------|


Riff 2
|-----------------------|
|-----------------------|
|-----------------------|
|-----------------------|
|------8---6--7---6--5--|
|--0-0-6---4--5---4--3--|
   . .

Riff 3
|-----------------------------------|-------------------------------------|
|-----------------------------------|-------------------------------------|
|-----------------------------------|-------------------------------------|
|-----------------------------------|-------------------------------------|
|-----------------------------------|-7-6---------------------------------|
|--1111111111111111111111111111111--|-5-4--44444444444444444444444444444--|
|  ...............................  |      .............................  |
|                                   |                                     |
|-----------------------------------|-------------------------------------|
|-----------------------------------|-------------------------------------|
|-----------------------------------|-------------------------------------|
|-----------------------------------|-------------------------------------|
|--3--------------------------------|-4-3---------------------------------|
|--1--1111111111111111111111111111--|-2-1--11111111111111111111111111111--|
      ............................         .............................

Riff 4
|---------------------------------------|
|---------------------------------------|
|---------------------------------------|
|---------------------------------------|
|--4\5------5\6------6/5------5/4-------|
|--2\3-3333-3\4-4444-4/3-3333-3/2-2222--|


Fill 1
|----------------------|
|----------------------|
|----------------------|
|----------------------|
|--4--5--4--5--6--7----|
|--2--3--2--3--4--5----|


Riff 1-B                                  Gtr I
|-----------------------|-----------------------|
|-----------------------|-----------------------|
|-----------------------|-----------------------|
|--------8--------7--6--|--------8--------------|
|-----8--6----7---5--4--|-----8--6----7---6--5--|
|--0--6-----5-5---------|--0--6-----5-5---4--3--|
   .                       .
                                          Gtr II
|-----------------------|-----------------------|
|-----------------------|-----------------------|
|-----------------------|-----------------------|
|--------8--------7--6--|--------8--------------|
|-----8--6----7---5--4--|-----8--6----7---6--5--|
|-----6-------5---------|-----6-------5---4--3--|


Riff 5
|----------------------------|
|----------------------------|
|----------------------------|
|--9--9----------------------|
|--7--7--7-------5---6---5---|
|--------5--0----3---4---3---|


Riff 6-A
|------------------------|
|------------------------|
|------------------------|
|--6---5------7---8------|
|--6---5------7---8------|
|--4---3------5---6------|


Riff 7
|----------------------------------|
|----------------------------------|
|----------------------------------|
|----------------------------------|
|--5----------------------5-4-5-4--|
|--3-33333323333332333333-3-2-3-2--|


Riff 8-A
|--------------------------------------------------------|
|--------------------------------------------------------|
|--------------------------------------------------------|
|-----------5--------------5--------------5--------------|
|-----------3--5-----------3--5-----------3--5--7\8------|
|--55555555----3--55555555----3--55555555----3--5\6------|


Riff 8-B
|--------------------------------------------------------|
|--------------------------------------------------------|
|--------------------------------------------------------|
|-----------5--------------5--------------5--------------|
|-----------3--5-----------3--5-----------3--5--7\8------|
|--55555555----3--55555555----3--55555555----3--5\6------|
-  ........       ........       ........

Riff 9
|---------------------------------|----------------------------------|
|---------------------------------|----------------------------------|
|---------------------------------|----------------------------------|
|---------------------------------|----------------------------------|
|--------------------------5-7--6-|----------------------------------|
|--0-0-0-0-0-0-0-0-0-0-0-0-3-5--4-|-4-4-4-4-4-4-4-4-4-4-4-4-4-4-4-4--|
|  . . . . . . . . . . . .          . . . . . . . . . . . . . . . .  |
|                                                                    |
|---------------------------------|----------------------------------|
|---------------------------------|----------------------------------|
|---------------------------------|----------------------------------|
|---------------------------------|----------------------------------|
|--2-----------------------5-7--6-|----------------------------------|
|--0---0-0-0-0-0-0-0-0-0-0-3-5--4-|-4-4-4-4-4-4-4-4-4-4-4-4-4-4-4-4--|
       . . . . . . . . . .           . . . . . . . . . . . . . . . .

Riff 6-B
|----------------------------|
|----------------------------|
|----------------------------|
|------5---4------7---8------|
|------5---4------7---8------|
|--0-0-3---2------5---6------|
   . .

End
|----------------------------|
|----------------------------|
|----------------------------|
|------5---4------7---8-8----|
|------5---4------7---8-8----|
|--0-0-3---2------5---6-6----|
   . .

LYRICS:

After the battle is over
And the sands drunken the blood
All what there remains
Is the bitterness of delusion

The immortality of the gods
Sits at their side
As they leave the walls behind
To reach the jewels gleam

The days have come
When the steel will rule
And upon his head
A crown of gold

Your hand wields the might
The tyrant's the precursor
You carry the will
As the morning is near

I sing the ballads
Of victory and defeat
I hear the tales
Of frozen mystery

The new kingdoms rise
By the circle of the tyrants
In the land of darkness
The warrior, that was me
Grotesque glory
None will ever see them fall
And hunts and war
Are like everlasting shadows

Where the winds cannot reach
The tyrant's might was born
And often I look back
With tears in my eyes
Grotesque glory
None will ever see them fall
And hunts and wars
Are like everlasting shadows


Check out my other tabs by: Deicide, Obituary, Hypocrisy,
Grave, Catastrophic, Six Feet Under, Incantation, Death and
Cannibal Corpse.
            
Submit corrections

comments powered by Disqus
↑ Back to top | Obituary Tabs for Circle Of The Tyrants. Lyrics for acoustic guitar and electric guitar. Tablatures and chords are parodies/interpretations of the original songs. You may use it for private study, scholarship, research or language learning purposes only