» » »

Obituary, Redneck Stomp Bass tabs (ver.1)

Artists:  A B C D E F G H I J K L M N O P Q R S T U V W X Y Z # 

Redneck Stomp Bass tabs (ver.1)

Obituary Tabs
 Rating:
4/5 (4 votes)
Redneck Stomp lessons Tabs too difficult? Try these video lessons and learn fast
1
                -------------------------------------------------------------------------------
-------------------------------------------------------------------------------


Tuning: D Standard (D G C F{ A D})

****Please Note****
In this song the slides, sound just as good as playing the note that the slide was 
going to end on. i.e. Just playing the 3rd fret on the 
4th string, sounds just as good as playing 1/3.


Riff 1:
								0:11-0:35
									X4
F|--------------------------------------------------------------------|
C|--------------------------------------------------------------------|
G|--------------------------------------------------------------------|
D|-0----0-0-0-0-1/3--0-0-0-0-5\6-5\6-0--1-1-1-1-----------------------|

Riff 2:
                                                              0:35-0:45
                                                                     X3 
F|--------------------------------------------------------------------|
C|--------------------------------------------------------------------|
G|---------5---7-------8-7--------------------------------------------|
D|-0-0-0-0---0---0-0-0------------------------------------------------|

Riff 1:
                                                              0:46-1:07
                                                                     X4

Riff 2:
                                                              1:07-1:28
                                                                     X8

Riff 3:
                                                              1:34-1:39    
                                                                     X1 
F|--------------------------------------------------------------------|
C|--------------------------------------------------------------------|
G|--------------------------------------------------------------------|
D|-0-0-0-0-4---0-0-0-0-3---0-0-0-0-6---0-0-0-0-5----------------------|

Riff 4:


F|--------------------------------------------------------------------|
C|--------------------------------------------------------------------|
G|--------------------------------------------------------------------|
D|-0-0-0-0-0-0-0-0-0-0-0-0-3/4-3/4-0----------------------------------|
Riff 4b:
Every 4th time playing riff 4, play:

F|--------------------------------------------------------------------|
C|--------------------------------------------------------------------|
G|--------------------------------------------------------------------|
D|-0-0-0-0-0-0-0-0-0-0-0-0-5/6-5/6-0----------------------------------|

The rest of the song goes:

Riff 3: x1
Riff 1: x8
Riff 1: x2
Riff 2: x6
Riff 4/4b: until fade


| /  slide up
| \  slide down
| h  hammer-on
| p  pull-off
| ~  vibrato
| +  harmonic
| x  Mute note
=======================================================================
            
Submit corrections

comments powered by Disqus
↑ Back to top | Obituary Bass for Redneck Stomp. Lyrics for acoustic guitar and electric guitar. 1 Tablatures and chords are parodies/interpretations of the original songs. You may use it for private study, scholarship, research or language learning purposes only