» » »

Obituary, Buried Alive Tabs (ver.2)

Artists:  A B C D E F G H I J K L M N O P Q R S T U V W X Y Z # 

Buried Alive Tabs (ver.2)

Obituary Tabs
Rating:
4/5 (1 vote)
Hard to play? Try these video lessons and learn fast.
                

Great song. Probably one of Obituary's easiest songs.
i didn't get to the solo yet. It's not very long so, you should be able
to figure it out on your own.  I don't think i forgot anything. listen to song 
for the rhythm. Enjoy.

------------------------------------------------------------------------------
------------------------------------------------------------------------------
-----4------------------------------------------------------------------------
---4--------5------7--4-------------------------------------------------------
-2--------5------7----4-------------------------------------------------------
--------3------5------2-------------------------------------------------------
 Riff A.  With Delay and Chorus                                               

------------------------------------------------------------------------------
------------------------------------------------------------------------------
------------------------------------------------------------------------------
-4-4-4-2-2-2-5-5-4-7-7--------------------------------------------------------
-4-4-4-2-2-2-5-5-4-7-7--------------------------------------------------------
-2-2-2-0-0-0-3-3-2-5-5--------------------------------------------------------
 Riff B. Delay and Chorus, then Heavy Distortion                              

------------------------------------------------------------------------------
------------------------------------------------------------------------------
------------------------------------------------------------------------------
-4-2-----4-2-----4-2----------------------------------------------------------
-4-2-----4-2-----4-2----------------------------------------------------------
-2-0-----2-0-----2-0----------------------------------------------------------
 Not sure how many times played. I'm doing this from memory                   

------------------------------------------------------------------------------
------------------------------------------------------------------------------
------------------------------------------------------------------------------
-4-4-----4-4-----4-4-----4-4-4-4-4-4-4-4-4-4-2-2-2-2-2------------------------
-4-4-----4-4-----4-4-----4-4-4-4-4-4-4-4-4-4-2-2-2-2-2------------------------
-2-2-----2-2-----2-2-----2-2-2-2-2-2-2-2-2-2-0-0-0-0-0------------------------
 don't know # of times played. Then go back to Riff B.
            

comments powered by Disqus
↑ Back to top | Obituary Tabs for Buried Alive. Lyrics for acoustic guitar and electric guitar. Tablatures and chords are parodies/interpretations of the original songs. You may use it for private study, scholarship, research or language learning purposes only