» » »

Obituary, Buried Alive Tabs (ver.1)

Artists:  A B C D E F G H I J K L M N O P Q R S T U V W X Y Z # 

Buried Alive Tabs (ver.1)

Obituary Tabs
Rating:
3/5 (1 vote)
Hard to play? Try these video lessons and learn fast.
                This song was pretty easy so i diecided to learn it unfortunatly i havent got the solo 
it just verse&chorus

tuning:standard (e a d g b e)


intro
---------------------|
---------------------|
---4-----------------|
--4---5---7-4--------|
-2---5---7--4--------|
----3---5---2--------|
repeat twice then go into

-----------------------------|
-----------------------------|
-----------------------------|
---4-2---9-5-5/7-7-----------|
--4--2--9--5-5/7-7-----------|
-2---0-7---3-3/5-5-----------|

i think you repeat it 6 times
and then just before the verse it go,s

--------------------------|
--------------------------|
--------------------------|
--------------------------|
-12/7----10/5-------------|
-10/5-----8/3-------------|

verse
-------------------------------|
-------------------------------|
-------------------------------|
-4-4-2-2-2-5-5-4-4/7-7---------|
-4-4-2-2-2-5-5-4-4/7-7---------|
-2-2-0-0-0-3-3-2-2/5-5---------|
repeat 4 times

chorus
---------------------------|
---------------------------|
---------------------------|
---------------------------|
-12/7---10/5---------------|
-10/5----8/3---------------|
repeat 2 times

interlude part

--------------------------------------------------|
--------------------------------------------------|
--------------------------------------------------|
--------------------------------------------------|
-4-4--4-4--4-4--4-2--4-4--4-4---4-2---------------|
-2-2--2-2--2-2--2-0--2-2--2-2---2-0---------------|

verse again

------------------------------|
------------------------------|
------------------------------|
-4-4-2--2-2-5-5-4-4/7---------|
-4-4-2--2-2-5-5-4-4/7---------|
-2-2-0--0-0-3-3-2-2/5---------|
repeat 4 times

chorus

--------------------|
--------------------|
--------------------|
--------------------|
-12/7--10/5---------|
-10/5---8/3---------|

this time you repeat 4 times

and then we reach the solo which i will learn when im better on the guitar
p.s i think the verse is wrong but only by a bit i think.
            

comments powered by Disqus
↑ Back to top | Obituary Tabs for Buried Alive. Lyrics for acoustic guitar and electric guitar. Tablatures and chords are parodies/interpretations of the original songs. You may use it for private study, scholarship, research or language learning purposes only