» » »

New Song Tabs (ver.2)

Artists:  A B C D E F G H I J K L M N O P Q R S T U V W X Y Z # 

New Song Tabs (ver.2)

Nuclear Assault
Rating:
0/5 (0 votes)

Hard to play? Try these video lessons and learn fast.
                Tuned down a half step

Riff 1 twice
Db-----9-----10-----9--7------0-0-7-0-0-8-0-0-10--8---
Ab-7-7---7-7----7-7-----------------------------------
       (twice)                      (twice)           then play Eb5 chord & let it ring.

Riff 2 twice
Ab-8/7---------8/7--8--7--8--3--2-------------
Eb-6/5-000000--6/5--6--5--6--1--0-0000000000--

Riff 3 once
Ab-3-2---------3---3---3--2--------------------------------
Eb-1-0-000000--1-0-1-0-1--0--0-0-0-0-0-0-0-0-0-0-0-0-0-0---

Riff 2 once

Riff 4 4x
Db-7-7-7-7-7-7-7---9/-----------------------------------
Ab-5-5-5-5-5-5-5---7/-----2---3-3-3-3-3-3-3---3--2--2---
Eb------------------------0---1-1-1-1-1-1-1---1--0--0---

Riff 2 twice
Riff 3 once
Riff 2 once
Riff 4 4x

Riff 5 4x
Ab-2----------------3------------------
Eb-0-00000000000000-1-11111111111111---

Riff 6 4x
Db-7/9-----------------7/9--10---9---3---------------------------------
Ab-5/7---7-7-7-7-7-7---5/7--8----7---1---2-2-2-2-2-2-2-2-2-2-2-2-2-2---
Eb-------0-0-0-0-0-0---------------------0-0-0-0-0-0-0-0-0-0-0-0-0-0---

Riff 2 twice
Riff 3 once
Riff 2 once
Riff 4 8x let the last chord ring then end w/
Db-9--9--9--9/
Ab-7--7--7--7/
            
Hard to play? Try these video lessons and learn fast. | Correct




comments powered by Disqus
↑ Back to top | Tablatures and chords are parodies/interpretations of the original songs. You may use it for private study, scholarship, research or language learning purposes only