>
 >
Critical Mass

Critical Mass Guitar Tabs

Nuclear Assault - Critical Mass chords, tabs, tablatures, lyrics

Guitar lessons | Add/correct | Request | Top 50 tabs Artists:  A B C D E F G H I J K L M N O P Q R S T U V W X Y Z 0-9

Critical Mass Guitar Tabs – Nuclear Assault

CD, Sheet music, Poster

Do you like Critical Mass? Share with your friends now
Bass TabsTabsTabs v2Tabs v3
----------------------------------------------------------------------------
                             SONG NAME - Band Name
--------------------------Critical Mass-Nuclear Assault---------------------
Tuning:EADGBe

e|--------------------------------------------------------------------------|
B|--------------------------------------------------------------------------|
G|--------------------------------------------------------------------------|
D|--------------------------------------------------------------------------|
A|8875--------8875--------8875----------------------------------------------|
E|6653--------6653--------6653----------------------------------------------|
                                    x8
e|--------------------------------------------------------------------------|
B|--------------------------------------------------------------------------|
G|--------------------------------------------------------------------------|
D|----------------7/6-7-10-7\6----------------------------------------------|
A|5\4-----4-3-----5/4-5-8--9\8----------------------------------------------|
E|3\2-0-0-2-1-0-0--------------0-0-0----------------------------------------|
      . .     . .              . . .
                                              x4
e|--------------------------------------------------------------------------|
B|--------------------------------------------------------------------------|
G|--------------------------------------------------------------------------|
D|----------4-----3-----------------4-3333333-------------------------------|
A|2---------2-----1-4-3-2-----------2-1111111-------------------------------|
E|0-0-0-2-3---0-0---2-1-0-0-0-2-3-5-----------------------------------------|
    . .       . .         . .
                                         x4
e|--------------------------------------------------------------------------|
B|--------------------------------------------------------------------------|
G|--------------------------------------------------------------------------|
D|------------3--------3--------3-3--3-3------------------------------------|
A|---3--------1--------1--------0h1--1p0------------------------------------|
E|00-1-0000000--0000000--0000000---00---------------------------------------|
  ..   .......  .......  .......   ..
                                               x4
e|--------------------------------------------------------------------------|
B|--------------------------------------------------------------------------|
G|--------------------------------------------------------------------------|
D|----------4-----3-----------------4-3333333-------------------------------|
A|2---------2-----1-4-3-2-----------2-1111111-------------------------------|
E|0-0-0-2-3---0-0---2-1-0-0-0-2-3-5-----------------------------------------|
    . .       . .
e|--------------------------------------------------------------------------|
B|--------------------------------------------------------------------------|
G|--------------------------------------------------------------------------|
D|--------------------------------------------------------------------------|
A|----3-5-------------------------------------------------------------------|
E|0-0-1/3-------------------------------------------------------------------|
  . .
                                                                       x2
e|--------------------------------------------------------------------------|
B|--------------------------------------------------------------------------|
G|--------------------------------------------------------------------------|
D|--------------------------------------------------------------------------|
A|--------------3-5---------------3-5---------3-5-4---3-------------3-4-----|
E|0-0-0-0-0-0-0-1/3-0-0-0-0-0-0-0-1/3-0-0-0-0-1/3-2-0-1-0-0-0-0-0-0-1/2-----|
  . . . . . . .     . . . . . . .     . . . .       .   . . . . . .

e|--------------------------------------------------------------------------|
B|--------------------------------------------------------------------------|
G|--------------------------------------------------------------------------|
D|--------------------------------------------------------------------------|
A|--------------3-5---------------3-5---------3-5-4-------------------------|
E|0-0-0-0-0-0-0-1/3-0-0-0-0-0-0-0-1/3-0-0-0-0-1/3-2-------------------------|
  . . . . . . .     . . . . . . .     . . . .

                                              x3
e|--------------------------------------------------------------------------|
B|--------------------------------------------------------------------------|
G|--------------------------------------------------------------------------|
D|----------4-----3-----------------4-3333333-------------------------------|
A|2---------2-----1-4-3-2-----------2-1111111-------------------------------|
E|0-0-0-2-3---0-0---2-1-0-0-0-2-3-5-----------------------------------------|
    . .       . .         . .
e|--------------------------------------------------------------------------|
B|--------------------------------------------------------------------------|
G|-------------------2------------------------------------------------------|
D|----------4-----3--2------------------------------------------------------|
A|2---------2-----1--0------------------------------------------------------|
E|0-0-0-2-3---0-0-----------------------------------------------------------|
    . .       . .
e|----------------------15------15------15------15--------------------------|
B|-----14------14-------14------14------14------14-14-12-11-13---11---------|
G|14/15---14/15---14/15----14/15---14/15---14/15---15-13-11-13b--11---------|
D|--------------------------------------------------------------------------|
A|--------------------------------------------------------------------------|
E|--------------------------------------------------------------------------|

e|------------------------------------------------------9-------------------|
B|-----------------------------------13---------9-10-11--11-10--------------|
G|-----------------------------------13b----11------------------------------|
D|12-11-10------------------10-11-12-----13---------------------------------|
A|---------12-11-10-10-11-12------------------------------------------------|
E|--------------------------------------------------------------------------|

e|--------9-----------------9---------------11-13-14-16-14-13-11-14-13-11---|
B|9-10-11---11-10-9--10-11--11-10-9-9/11-14---------------------------------|
G|--------------------------------------------------------------------------|
D|--------------------------------------------------------------------------|
A|--------------------------------------------------------------------------|
E|--------------------------------------------------------------------------|

e|---------------------------16-18-21-18-16----16-18-21-18-16---------------|
B|14-12-11----------------------------------19----------------19------------|
G|---------13-11-13bp11---11------------------------------------------------|
D|----------------------13--------------------------------------------------|
A|--------------------------------------------------------------------------|
E|--------------------------------------------------------------------------|

e|16-18-21-18-16---16-18-21-18-16----16-18-21-18-16-------------------------|
B|--------------19----------------19----------------19----------------------|
G|--------------------------------------------------------------------------|
D|--------------------------------------------------------------------------|
A|--------------------------------------------------------------------------|
E|--------------------------------------------------------------------------|

e|16-18-21-18-21-18-16--------21-21b----------------------------------------|
B|---------------------19-21b----21b----------------------------------------|
G|--------------------------------------------------------------------------|
D|--------------------------------------------------------------------------|
A|--------------------------------------------------------------------------|
E|--------------------------------------------------------------------------|
                                         x4
e|--------------------------------------------------------------------------|
B|--------------------------------------------------------------------------|
G|--------------------------------------------------------------------------|
D|------------3--------3--------3-3--3-3------------------------------------|
A|---3--------1--------1--------0h1--1p0------------------------------------|
E|00-1-0000000--0000000--0000000---00---------------------------------------|
  ..   .......  .......  .......   ..
                                              x4
e|--------------------------------------------------------------------------|
B|--------------------------------------------------------------------------|
G|--------------------------------------------------------------------------|
D|----------4-----3-----------------4-3333333-------------------------------|
A|2---------2-----1-4-3-2-----------2-1111111-------------------------------|
E|0-0-0-2-3---0-0---2-1-0-0-0-2-3-5-----------------------------------------|
    . .       . .         . .
                                    x8
e|--------------------------------------------------------------------------|
B|--------------------------------------------------------------------------|
G|--------------------------------------------------------------------------|
D|----------------7/6-7-10-7\6----------------------------------------------|
A|5\4-----4-3-----5/4-5-8--9\8----------------------------------------------|
E|3\2-0-0-2-1-0-0--------------0-0-0----------------------------------------|
      . .     . .              . . .
e|--------------------------------------------------------------------------|
B|--------------------------------------------------------------------------|
G|--------------------------------------------------------------------------|
D|--------------------------------------------------------------------------|
A|2-------------------------------------------------------------------------|
E|0-------------------------------------------------------------------------|

| /  slide up
| \  slide down
| h  hammer-on
| p  pull-off
| ~  vibrato
| +  harmonic
| x  Mute note
| b  Bend
| .  Palm Mute
============================================================================





Comments


Popular Nuclear Assault tabs & chords
F# (Wake Up) Bass Tabs
Brain Death Tabs
Critical Mass 1 Tabs
Equal Rights Tabs
F# Tabs
Game Over Tabs
Hang The Pope.. Tabs
New Song Tabs
Spell Correctly Tabs
Trail Of Tears Tabs


Song lyrics



↑ Back to top | Tablatures and chords are parodies/interpretations of the original songs. You may use it for private study, scholarship, research or language learning purposes only
© 2014 AZChords.com Contact us | Privacy policy | DMCA | Add/correct tabs | Request tabs | Top 50 tabs