» » »

Nuclear Assault, New Song Tabs (ver.1)

Artists:  A B C D E F G H I J K L M N O P Q R S T U V W X Y Z # 

New Song Tabs (ver.1)

Nuclear Assault Tabs
 Rating:
4/5 (4 votes)
New Song lessons Tabs too difficult? Try these video lessons and learn fast
                NUCLEAR ASSAULT - NEW SONG
(Handle With Care, 1989)

Key
= after note = vibrato
^ after note = heavy vibrato 
\ = slide down
/ = slide up
+ = tap
h = hammer
p = pull
n = natural harmonic
s = pinching harmonic (squeal)
* = tremolo pick
t = trill
b = bend
|-3-| = triplet

n number above the tab = play the first part then the first finishing part
			 play the first part a second time and then play the second finishing part
			 etc.

Tune Down 1/2 Step

Riff 1

Eb -----------------------------------------------------------------------------------------------
Bb -----------------------------------------------------------------------------------------------
Gb -----------------------------------------------------------------------------------------------
Db -----9-----10-----9---7-----9-----10-----9---7-------7-----8-----7-5-8------7-----8-----7-5-8--
Ab -7-7---7-7----7-7---7---7-7---7-7----7-7---7---7-5-5---5-5---5-5--------5-5---5-5---5-5--------
Eb -----------------------------------------------------------------------------------------------

Riff 2

Eb --------------------------------------------------------------------------------
Bb --------------------------------------------------------------------------------
Gb --------------------------------------------------------------------------------
Db -8-7-------------------8-7---8------3--3-3--------------------------------------
Ab -8-7-------------------8-7---8------3--3-3--------------------------------------
Eb -6-5-00-00-00-00-00-00-6-5-0-6--1-1-1--1-1--00-00-00-00-00-00-00-00-00-00-00-00-

Riff 2A

Eb ---------------------------------------------------------------------
Bb ---------------------------------------------------------------------
Gb ---------------------------------------------------------------------
Db -3-2-------------------3-2---3----3----------------------------------
Ab -3-2-------------------3-2---3----3----------------------------------
Eb -1-0-00-00-00-00-00-00-1-0-0-1--0-1--0-0-0-0-0-0-0-0-0-0-0-0-0-0-0-0-

Eb --------------------------------------------------
Bb --------------------------------------------------
Gb --------------------------------------------------
Db -8-7-------------------8-7---8---------8--3--2----
Ab -8-7-------------------8-7---8---------8--3--2----
Eb -6-5-00-00-00-00-00-00-6-5-0-6-0-0-0-0-6--1--0----

Riff 3

Eb ---------------------------------------------------------------
Bb ---------------------------------------------------------------
Gb -7-7-7-7-7-7-7-9-----------------------------------------------
Db -7-7-7-7-7-7-7-9-----------------------------------------------
Ab -5-5-5-5-5-5-5-7-----------------------------------------------
Eb -------------------0-0-0-0-0-0-1-1-1-1-1-1-1-1-0-0-0-0-0-0-0-0-

Riff 3A

Eb --------------------------------------------------------
Bb --------------------------------------------------------
Gb -7-7-7-7-7-7-7-9----------------------------------------
Db -7-7-7-7-7-7-7-9----------------------------------------
Ab -5-5-5-5-5-5-5-7----------------------------------------
Eb -------------------0-0-0-0-0-0-1-1-1-1-1-1-1-1-0--------

Riff 3B

Eb --------------------------------------------------------------
Bb --------------------------------------------------------------
Gb -7-7-7-7-7-7-7-9----------------------------------------------
Db -7-7-7-7-7-7-7-9---------------------------3--2---------------
Ab -5-5-5-5-5-5-5-7---------------------------3--2---------------
Eb -------------------0-0-0-0-0-0-1-1-1-1-1-1-1--0-0-0-0-0-0-0-0-

Riff 3C

Eb ------------------------------------------------------
Bb ------------------------------------------------------
Gb -7-7-7-7-7-7-7-9--------------------------------------
Db -7-7-7-7-7-7-7-9-----------------------------2--------
Ab -5-5-5-5-5-5-5-7-----------------------------2--------
Eb -------------------0-0-0-0-0-0-1-1-1-1-1-1-1-0--------

Riff 4

Eb -------------------------------------------------------------------------------------------------
Bb -------------------------------------------------------------------------------------------------
Gb -------------------------------------------------------------------------------------------------
Db -------------------------------------------------------------------------------------------------
Ab -------------------------------------------------------------------------------------------------
Eb -00-00-00-00-00-00-00-00-00-00-00-00-00-00-00-00-11-11-11-11-11-11-11-11-11-11-11-11-11-11-11-11-

Riff 5

Eb ----------------------------------------------------------------
Bb ----------------------------------------------------------------
Gb -7-9-------------7-9---10--9------------------------------------
Db -7-9-------------7-9---10--9---8--------------------------------
Ab -5-7-------------5-7---8 --7---8--------------------------------
Eb -----0-0-0-0-0-0-----0-------0-6--0-0-0-0-0-0-0-0-0-0-0-0-0-0-0-

Riff 5A 

Eb ----------------------------------------
Bb ----------------------------------------
Gb -7-9-------------7-9---10--9------------
Db -7-9-------------7-9---10--9--2---------
Ab -5-7-------------5-7---8 --7--2---------
Eb -----0-0-0-0-0-0-----0--------0---------

Order

Riff 1 x 2
Fill 1 x 1
Riff 2 x 2
Riff 2A x 1
Riff 3 x 3
Riff 3A x 1
Riff 2 x 2
Riff 2A x 1
Riff 3 x 3
Riff 3A x 1
Solo over Riff 4 x 4
Riff 5 x 3
Riff 5A x 1
Riff 2 x 2
Riff 2A x 1
Riff 3 x 4
Riff 3B x 3
Riff 3C x 1
            
Submit corrections

comments powered by Disqus
↑ Back to top | Nuclear Assault Tabs for New Song. Lyrics for acoustic guitar and electric guitar. Tablatures and chords are parodies/interpretations of the original songs. You may use it for private study, scholarship, research or language learning purposes only