» » »

Nuclear Assault, Rise From The Ashes Tabs (ver.1)

Artists:  A B C D E F G H I J K L M N O P Q R S T U V W X Y Z # 

Rise From The Ashes Tabs (ver.1)

Nuclear Assault Tabs
 Rating:
4.7/5 (12 votes)
Rise From The Ashes lessons Tabs too difficult? Try these video lessons and learn fast
1
                      


Tuning:Standard

0:00                                                                       4x
e|---------------------------------------------------------------------------|
B|---------------------------------------------------------------------------|
G|---------------------------------------------------------------------------|
D|---------------------------------------------------------------------------|
A|-2-----2-----------4---3---------------------------------------------------|
E|-0-0-0-0-0-0-3-2-0-2-0-1---------------------------------------------------|
     * *   * *         *
  
0:12                                                                       4x
e|---------------------------------------------------------------------------|
B|---------------------------------------------------------------------------|
G|---------------------------------------------------------------------------|
D|-9-------------------------------------------------------------------------|
A|-7-----2-----------4---3---------------------------------------------------|
E|---0-0-0-0-0-3-2-0-2-0-1---------------------------------------------------|
     * *   * *         *

0:19                                                                       2x
e|---------------------------------------------------------------------------|
B|---------------------------------------------------------------------------|
G|---------------------------------------------------------------------------|
D|---------------------------------------------------------------------------|
A|---------------------------------------------------------5-8---------------|
E|-0-0-7-0-0-6-0-0-2-0-2-3---2-3-2---0-0-7-0-0-6-0-0-2-0-2-3-6---------------|

0:26                                                                       2x
e|---------------------------------------------------------------------------|
B|---------------------------------------------------------------------------|
G|---------------------------------------------------------------------------|
D|---------------------------------------------------------------------------|
A|-----------------------5---------------------------------5-8---------------|
E|-0-0-7-0-0-6-0-0-2-0-2-3---2-3-2---0-0-7-0-0-6-0-0-2-0-2-3-6---------------|

0:33                                                                       1x
e|---------------------------------------------------------------------------|
B|---------------------------------------------------------------------------|
G|---------------------------------------------------------------------------|
D|---------------------------------------------------------------------------|
A|-----------------------------2-3-------------------------------------------|
E|-2-1-0-5-2-0-5-2-0-3-2-0-2-0-----------------------------------------------|

0:35                                                                       4x
e|---------------------------------------------------------------------------|
B|---------------------------------------------------------------------------|
G|---------------------------------------------------------------------------|
D|---------------------------------------------------------------------------|
A|-----------------------5---------------------------------5-8---------------|
E|-0-0-7-0-0-6-0-0-2-0-2-3---2-3-2---0-0-7-0-0-6-0-0-2-0-2-3-6---------------|

0:48                                                                       1x
e|---------------------------------------------------------------------------|
B|---------------------------------------------------------------------------|
G|---------------------------------------------------------------------------|
D|---------------------------------------------------------------------------|
A|-----------------------------2-3-------------------------------------------|
E|-2-1-0-5-2-0-5-2-0-3-2-0-2-0-----------------------------------------------|

0:50                                                                      10x
e|---------------------------------------------------------------------------|
B|---------------------------------------------------------------------------|
G|---------------------------------------------------------------------------|
D|-------------------------4p5p4p0----------------------------------4p5p4p0--|
A|-------------5-4-----------------4p5p4p0--------------5-4-----------------8|
E|-0-0-0-0-0-0-3-2-0-0-0-0------------------0-0-0-0-0-0-3-2-0-0-0-0---------6|
   * * * * * *     * * * *                  * * * * * *     * * * *

1:39                                                                       1x
e|---------------------------------------------------------------------------|
B|---------------------------------------------------------------------------|
G|---------------------------------------------------------------------------|
D|-9---------------12---------------11--------------10-----------------------|
A|-7---------------10---------------9----------------8-----------------------|
E|---------------------------------------------------------------------------|

1:53                                                                       1x
e|---------------------------------------------------------------------------|
B|---------------------------------------------------------------------------|
G|---------------------------------------------------------------------------|
D|-9--9--9--9--9--9--9--9--9--9--9--9--9--9--9--9----------------------------|
A|-7--7--7--7--7--7--7--7--7--7--7--7--7--7--7--7----------------------------|
E|---------------------------------------------------------------------------|

1:56                                                                       8x
e|---------------------------------------------------------------------------|
B|---------------------------------------------------------------------------|
G|---------------------------------------------------------------------------|
D|----------------9-8-11-10--------------------------------------------------|
A|-----9-8-11-----7-6-9--8---------------------------------------------------|
E|-0-0-7-6-9--0-0------------------------------------------------------------|
   * *        * *

2:11 I cannot tell if the 0's are muted. Couldnt hear for the life of me.  2x
e|---------------------------------------------------------------------------|
B|---------------------------------------------------------------------------|
G|---------------------------------------------------------------------------|
D|---------------------------------------------------------------------------|
A|-----------------------------5-------------------------4-5-----------------|
E|-0-0-0-0-6-0-0-0-5-0-0-0-2-0-3-0-0-0-0-6-0-0-0-5-0-0-0-2-3-----------------|


2:18                                                                       4x
e|---------------------------------------------------------------------------|
B|---------------------------------------------------------------------------|
G|---------------------------------------------------------------------------|
D|----------------9-8-11-10--------------------------------------------------|
A|-----9-8-11-----7-6-9--8---------------------------------------------------|
E|-0-0-7-6-9--0-0------------------------------------------------------------|
   * *        * *

2:25                                                                       2x
e|---------------------------------------------------------------------------|
B|---------------------------------------------------------------------------|
G|---------------------------------------------------------------------------|
D|---------------------------------------------------------------------------|
A|-----------------------------5-------------------------4-5-----------------|
E|-0-0-0-0-6-0-0-0-5-0-0-0-2-0-3-0-0-0-0-6-0-0-0-5-0-0-0-2-3-----------------|

2:32                                                                       4x
e|---------------------------------------------------------------------------|
B|---------------------------------------------------------------------------|
G|---------------------------------------------------------------------------|
D|---------------------------------------------------------------------------|
A|-2-----2-----------4---3---------------------------------------------------|
E|-0-0-0-0-0-0-3-2-0-2-0-1---------------------------------------------------|
     * *   * *         *

2:40                                                                       4x
e|---------------------------------------------------------------------------|
B|---------------------------------------------------------------------------|
G|---------------------------------------------------------------------------|
D|-9-------------------------------------------------------------------------|
A|-7-----2-----------4---3---------------------------------------------------|
E|---0-0-0-0-0-3-2-0-2-0-1---------------------------------------------------|
     * *   * *         *

2:47                                                                       4x
e|---------------------------------------------------------------------------|
B|---------------------------------------------------------------------------|
G|---------------------------------------------------------------------------|
D|---------------------------------------------------------------------------|
A|-2-----2-----------4---3---------------------------------------------------|
E|-0-0-0-0-0-0-3-2-0-2-0-1---------------------------------------------------|
     * *   * *         *

2:55                                                                       4x
e|---------------------------------------------------------------------------|
B|---------------------------------------------------------------------------|
G|---------------------------------------------------------------------------|
D|-9-------------------------------------------------------------------------|
A|-7-----2-----------4---3---------------------------------------------------|
E|---0-0-0-0-0-3-2-0-2-0-1---------------------------------------------------|
     * *   * *         *

3:02                                                                       1x
e|---------------------------------------------------------------------------|
B|---------------------------------------------------------------------------|
G|---------------------------------------------------------------------------|
D|---------------------------------------------------------------------------|
A|-----------------------5---------2-----------------------------------------|
E|-0-0-7-0-0-6-0-0-2-0-2-3---2-3-2-0-----------------------------------------|



************************************

| /   slide up
| \   slide down
| h   hammer-on
| p   pull-off
| ~   vibrato
| +   harmonic
| x   Mute note
| b   Bend
| pb  Pre-bend
| br  Bend release
| pbr Pre-bend release
| brb Bend release bend

************************************
            
Submit corrections

comments powered by Disqus
↑ Back to top | Nuclear Assault Tabs for Rise From The Ashes. Lyrics for acoustic guitar and electric guitar. 1 Tablatures and chords are parodies/interpretations of the original songs. You may use it for private study, scholarship, research or language learning purposes only