» » »

Nirvana, Even In His Youth Tabs (ver.2)

Artists:  A B C D E F G H I J K L M N O P Q R S T U V W X Y Z # 

Even In His Youth Tabs (ver.2)

Nirvana Tabs
 Rating:
4/5 (4 votes)
Even In His Youth lessons Tabs too difficult? Try these video lessons and learn fast
                I noticed the solo posted for "Even in his youth" was wrong...so here is a
more correct one:

Solo to:Even In His Youth

1st part..play 7 times then play 2nd part once
e--------------||
B--------------||
G-----------------------------5-3----||
D---------3-5-5-3-5sb-3-5sb-------5-3---||
A-3-3-5---------------------------------5-||
E--------------||
(sb=slightly bend note)

2nd part ( im not sure about this part)
e--------------||
B--------------||
G----------------------------3-/-6-6--||
D---------3-5-5-3-5-3-5---||
A-3-3-5------||
E--------------||
(/=slide up)
            
Submit corrections

comments powered by Disqus
↑ Back to top | Nirvana Tabs for Even In His Youth. Lyrics for acoustic guitar and electric guitar. Tablatures and chords are parodies/interpretations of the original songs. You may use it for private study, scholarship, research or language learning purposes only