» » »

Nirvana, Even In His Youth Bass tabs (ver.1)

Artists:  A B C D E F G H I J K L M N O P Q R S T U V W X Y Z # 

Even In His Youth Bass tabs (ver.1)

Nirvana Tabs
 Rating:
4/5 (4 votes)
Even In His Youth lessons Tabs too difficult? Try these video lessons and learn fast
                   -----------------

Standard Tuning
Main Riff

G------------------|
D------------------|
A-3-3--------------|
E-----3-3-4-3------|

Secondary Riff

G------------------------------------------------|
D------------------------------------------------|
A-----2-2-2-2-0-----5------2-2-2-2-0-------------|
E-0-0-----------3-3----0-0-----------3-3-5-5-5-5-|
            
Submit corrections

comments powered by Disqus
↑ Back to top | Nirvana Bass for Even In His Youth. Lyrics for acoustic guitar and electric guitar. Tablatures and chords are parodies/interpretations of the original songs. You may use it for private study, scholarship, research or language learning purposes only