» » »

Nirvana, Even In His Youth Tabs (ver.1)

Artists:  A B C D E F G H I J K L M N O P Q R S T U V W X Y Z # 

Even In His Youth Tabs (ver.1)

Nirvana Tabs
 Rating:
4/5 (4 votes)
Even In His Youth lessons Tabs too difficult? Try these video lessons and learn fast
                Even in his youth (rare)
lyrics/tabs by kurt cobain 


Verse x 22 

E/--------------------------
B/--------------------------
G/-7-7---3-3-3--------------
D/-7-7-0-3-3-3-0------------
A/-5-5-0-1-1-1-0------------
E/--------------------------

chorus x 4 

E/--------------------------
B/--------------------------
G/-----7-7------------------
D/-4-4-7-7-7-7-9-9----------
A/-4-4-5-5-7-7-7-7----------
E/-2-2-----5-5-0-0----------

End of chorus x 1 

E/---------------------------
B/---------------------------
G/---------------------------
D/-6-6-6-6-6-6-6-6-6---------
A/-6-6-6-6-6-6-6-6-6---------
E/-4-4-4-4-4-4-4-4-4---------

verse x16

chorus x 4 

End of chorus x 1 

solo 1st part x 7

E/--------------------------------------------
B/--------------------------------------------
G/-------------------------------5-3----------
D/------------3-5-5-3-5sb-3-5sb------5-3------
A/-3-3-5---------------------------------5----
E/--------------------------------------------
(sb=slightly bend note)

solo 2nd part x 1 

E/--------------------------------
B/--------------------------------
G/---------------------3-/-6-6----
D/-------3-5-5-3-5-3-5------------
A/-3-3-5--------------------------
E/--------------------------------

(/=slide up)

chorus x 4 

end of chorus  x 1 

verse x 16 (it ends here fading away)

~~~~~~~~~~~~~~~~~~~~~~~~~~LYRICS~~~~~~~~~~~~~~~~~~~~~~~~~~~~
verse 1st time 

even in his youth 
even in his youth 
even in his youth 
he was nothing 
kept his body clean 
kept his body clean 
kept his body clean 
going nowhere
daddy was ashamed 
daddy was ashamed 
daddy was ashamed 
he was something 
disgrace the family name 
disgrace the family name 
family name he was something 

chorus 1st time

he was born for your crew 
ive got nothing left to prove 
if i die before i wake 
hope i dont come back a slave 

verse 2nd time

even in his youth 
even in his youth 
even in his youth 
he was nothing 
kept his body clean 
kept his body clean 
kept his body clean 
going nowhere
daddy was ashamed 
daddy was ashamed 
he was ashamed 
he was nothing 
disgrace the family name 
disgrace the family name 
family name going nowhere

chorus 2nd time 

he was born for your prove 
ive got nothing left to crew 
if i die before i wake 
hope i dont come back a slave 

oh yeah

(the solo is in between)

chorus 3rd time 

he was born for your crew 
ive got nothing left to prove 
if i die before i wake 
hope i dont come back again

im dying 

(you end with the verse fading away)
 
even in his youth 
even in his youth 
yea yea 
(repeat numerous times)
            
Submit corrections

comments powered by Disqus
↑ Back to top | Nirvana Tabs for Even In His Youth. Lyrics for acoustic guitar and electric guitar. Tablatures and chords are parodies/interpretations of the original songs. You may use it for private study, scholarship, research or language learning purposes only