» » »

Nirvana, Even In His Youth Bass tabs (ver.3)

Artists:  A B C D E F G H I J K L M N O P Q R S T U V W X Y Z # 

Even In His Youth Bass tabs (ver.3)

Nirvana Tabs
 Rating:
4/5 (4 votes)
Even In His Youth lessons Tabs too difficult? Try these video lessons and learn fast
                You better have a machine that can really boost the bass or you probably won't hear all 
little parts in it.


MAIN:

G|--------5-5--------------------|
D|-------------------------------|
A|--3--------------3-------------|
E|-----3-4------------3-4-3-1-3--|

That riff is veryy fast so you'll have to listen very hard to get it right.

CHORUS (Play twice)

G|---------------------------------------------------|
D|--------------------------2---2-------5---5--------|
A|--------3---3-------5---5-------3---3-------5---5--|
E|--0---0-------3---3--------------------------------|

The rhythm goes Da Da-Da Da-Da and so on...

RHYTHM EXAMPLE
    Da  DaDa  Dada  DaDa  DaDa  DaDa  DaDa  DaDa  Da
G|---------------------------------------------------|
D|--------------------------2---2-------5---5--------|
A|--------3---3-------5---5-------3---3-------5---5--|
E|--0---0-------3---3--------------------------------|

CHORUS ENDING

G|-------------------7--------------|
D|-----------6-7-8-9---9-7-5--------|
A|---6-7-8-9-----------------7-5-5--|
E|--7-------------------------------|
PLAY FAST!!!!!

That's all the parts, now you have to assemble them together.
            
Submit corrections

comments powered by Disqus
↑ Back to top | Nirvana Bass for Even In His Youth. Lyrics for acoustic guitar and electric guitar. Tablatures and chords are parodies/interpretations of the original songs. You may use it for private study, scholarship, research or language learning purposes only