» » »

Did It Hurt Tabs (ver.2)

Artists:  A B C D E F G H I J K L M N O P Q R S T U V W X Y Z # 

Did It Hurt Tabs (ver.2)

Nevershoutnever
Rating:
3/5 (1 vote)

Hard to play? Try these video lessons and learn fast.
                -----------------------------------------------------------------------------
                             Did It Hurt? - NeverShoutNever
-----------------------------------------------------------------------------

Tuning:EADGBe
this is my second tab.
the strumming pattern is easy to figure out.
this is the closest i could get it.
Enjoy :)


 intro/verse
 "i've been
     waiting my whole life For a someone like you To go and 
     pick me up and              take away my blues It's been one 
     hell of a year              In my own shoes.....questions for you..."
e|----7---------------------------8------------------10---------------------|
B|----8---------------------------8-------------------7---------------------|
G|----7---------------------------8-------------------7---------------------|
D|--------------------------------------------------------------------------|
A|--------------------------------------------------------------------------|
E|--------------------------------------------------------------------------|

 chorus
 "did it hurt when you fell from he-e-evannn"
e|---15-----------------14-------12-----10----------------------------------|
B|---12-----------------10--------8------7----------------------------------|
G|---12-----------------11--------9------7----------------------------------|
D|--------------------------------------------------------------------------|
A|--------------------------------------------------------------------------|
E|--------------------------------------------------------------------------|

 "from the first time  we touched"
e|----------10-----9----8-----7---------------------------------------------|
B|-----------7-----6----5-----8---------------------------------------------|
G|-----------7-----6----5-----7---------------------------------------------|
D|--------------------------------------------------------------------------|
A|--------------------------------------------------------------------------|
E|--------------------------------------------------------------------------|
 
 outro
e|---7----------8--------------10--8----------------------------------------|
B|---8----------8---------------7--8----------------------------------------|
G|---7----------8---------------7--8----------------------------------------|
D|--------------------------------------------------------------------------|
A|--------------------------------------------------------------------------|
E|--------------------------------------------------------------------------|
            
Hard to play? Try these video lessons and learn fast. | Correct




comments powered by Disqus
↑ Back to top | Tablatures and chords are parodies/interpretations of the original songs. You may use it for private study, scholarship, research or language learning purposes only