» » »

Nevershoutnever, Did It Hurt Bass tabs (ver.1)

Artists:  A B C D E F G H I J K L M N O P Q R S T U V W X Y Z # 

Did It Hurt Bass tabs (ver.1)

Nevershoutnever Tabs
 Rating:
4.2/5 (5 votes)
Did It Hurt lessons Tabs too difficult? Try these video lessons and learn fast
1
                -------------------------------------------------------------------------------
-------------------------------------------------------------------------------


Tuning: Standerd

Intro
G|-------------------------------|
D|-------------------------------|
A|-------3---------------3-------|
E|-3------------3----------------|

Verse 1
G|-----------------------------------------------------------------------------|
D|-----------------------------------------------------------------------------|
A|-----3--------3--------3--------3~~--------5~~-------------------------------|
E|3--------3-------3---------3~~-----------------------------------------------|

Chorus- follow rythem
G|-------------------------|         |------------------------------------------------|
D|-------------------------|         |------------------------------------------------|
A|------5-------3----------| x3      |------------------------------------------------|
E|3-------------------3----|         |--6-5-4-3---------------------------------------|

Verse 2
G|-----------------------------------------------------|
D|-----------------------------------------------------|
A|-----3--------3--------3--------3--------5-----------|
E|3--------3-------3---------3-------------------------|

Chorus-follow rhythm
G|-------------------------------|       |-------------------|
D|-------------------------------|       |-------------------|
A|------5-------3----------------|x3     |-------------------|
E|3-------------------3----------|       |-6-5-4-3-----------|

Outro- follow the rhythm
G|----------------------------------------------------|
D|----------------------------------------------------|
A|--- --5------3-----------------5---------3----------|
E|3----------------------3----------------------------|

Sorry about the page set up computer is being weird

| /  slide up
| \  slide down
| h  hammer-on
| p  pull-off
| ~  vibrato
| +  harmonic
| x  Mute note
===============================================================================
            
Submit corrections

comments powered by Disqus
↑ Back to top | Nevershoutnever Bass for Did It Hurt. Lyrics for acoustic guitar and electric guitar. 1 Tablatures and chords are parodies/interpretations of the original songs. You may use it for private study, scholarship, research or language learning purposes only