>
 >
Hummingbird

Hummingbird Guitar Tabs

Nevershoutnever - Hummingbird chords, tabs, tablatures, lyrics

Guitar lessons | Add/correct | Request | Top 50 tabs Artists:  A B C D E F G H I J K L M N O P Q R S T U V W X Y Z 0-9

Hummingbird Guitar Tabs – Nevershoutnever

CD, Sheet music, Poster

Do you like Hummingbird? Share with your friends now
ChordsChords v2Chords v3Chords v4TabsUkulele
I haven't been able to find decently accurate tab for this song, there is a riff 
in the beginning up until the end of the first chorus that is likely fingerpicked, 
the chord names at the top correlate with the ones in the song... this was tabbed 

   Dsus2--- xx0230         A------- x02220
   Em7----- 022033         Dsus4--- xx0233
   Em7*---- 022030         G------- 320033
   G6------ 320030         A7sus4-- x02233
   Asus4--- x02230   
  
   

    Dsus2            Em7*             G6
e|----0----------0----0----------0----0--------| This is for the first 
B|---------3---------------3----------3--------| verse.
G|------------2---------------0----------------|   
D|----0---------------2------------------------|
A|---------------------------------------------| 
E|------------------------------------3--------|


  And I'll pray                For change
    Asus4                             A
e|----0----------0----0----------0----0--------|  
B|---------3---------------3----------2--------| 
G|------------2---------------2----------------|   
D|---------------------------------------------|
A|----0---------------0---------------0--------| 
E|---------------------------------------------|


 *THIS IS THE FIRST CHORUS RIFF*
    Dsus4            Em7              G             A7sus4
e|----3----------3----3----------3----3----------3----3----------3--------| 
B|---------3---------------3---------------3---------------3--------------| 
G|------------2---------------0---------------0---------------2-----------|   
D|----0---------------2---------------------------------------------------|
A|----------------------------------------------------0-------------------| 
E|------------------------------------3-----------------------------------|



Dsus2    Em7*    G6
 I      like    you
 Dsus2              Em7*       G6
Girl you don't got nothing to prove to me
    Dsus2    Em7*            G6
I know that times have been rough
         Dsus2   Em7*   G6
For the both     of     us

         Asus4      A
But I'll pray for a change

               Dsus4            Em7
You see this world has lots to offer
         G              A7sus4
But in time it will go dark,
             Dsus4           Em7
And if this love is what we say it is
     G               A7sus4
I'm sure we will go far
            Dsus4            Em7
And with a girl as sweet as you
         G        A7sus4     Dsus4
There's not much else I can do
    Asus4   A         Dsus2          <----- Start strumming at the Dsus2 
But faaaaaaaaall for you

(Dsus2)  Em7*  G6

      Dsus2           Em7*
You know that I'm a wreck
        G6
And I know you can't breathe
        Dsus2      Em7*           G6
At the edge of my seat with each word
         Dsus2           Em7*
As the months turn into years
       G6                      Dsus2  Em7*
Just know that I will wait... here,
     G6
For you

         Asus4        A
Cause I prayed for a change

               Dsus4            Em7
You see this world has lots to offer
         G              A7sus4
But in time it will go dark,
             Dsus4           Em7
And if this love is what we say it is
     G               A7sus4
I'm sure we will go far
            Dsus4            Em7
And with a girl as sweet as you
         G        A7sus4     Dsus4
There's not much else I can do
    Asus4   A         Dsus2 Em7* G6   
But faaaaaaaaall for yooooooouuuuuu...
                      Dsus2 Em7* G6 
                 for yooooooouuuuuu...
                      Dsus2 Em7* G6   
                 for yooooooouuuuuu...
                      Dsus2 Em7* G6 
                 for yooooooouuuuuu...

***NOW WE ARE BACK TO THE PICKING RIFF FOR THE LAST CHORUS***

               Dsus4            Em7
You see this world has lots to offer
         G              A7sus4
But in time it will go dark,
             Dsus4           Em7
And if this love is what we say it is
     G               A7sus4
I'm sure we will go far
            Dsus4            Em7
And with a girl as sweet as you
         G        A7sus4     Dsus4
There's not much else I can do
    Asus4   A         Dsus2      <----- Strum the Dsus2 once to end the song. 
But faaaaaaaaall for you

---------------------------------
This was my first tab!! I hope I got it all right!!
--Anthoni Morrow





Comments


Popular Nevershoutnever tabs & chords
Cheatercheaterbestfriendeater 2 Chords
Cheatercheaterbestfriendeater 4 Chords
Harmony 4 Chords
Liar Liar 4 Chords
Overtheyears 1 Chords
The Duet Chords
I Just Laugh Ukulele
On The Brightside Ukulele
Shes Got Style Ukulele
Stuck On You Ukulele


Song lyrics



↑ Back to top | Tablatures and chords are parodies/interpretations of the original songs. You may use it for private study, scholarship, research or language learning purposes only
© 2014 AZChords.com Contact us | Privacy policy | DMCA | Add/correct tabs | Request tabs | Top 50 tabs