» » »

Nevershoutnever, Did It Hurt Tabs (ver.1)

Artists:  A B C D E F G H I J K L M N O P Q R S T U V W X Y Z # 

Did It Hurt Tabs (ver.1)

Nevershoutnever Tabs
Rating:
3/5 (3 votes)
Did It Hurt lessons Tabs too difficult? Try these video lessons and learn fast
                I just did this by ear like..a second ago

so it may not be exact.  This song is normally played on Ukulele, but these chords sound 
like it so you should be pretty pleased.

so have fun..XD

Also, the way i play it leaves you pretty high up on the fret board.  so if you want 
it near the middle of the fret board then just move down a string.


Intro

      G     C
E--------------|
B-----12----13-|
G-----------12-|
D-----12----10-|
A-----10-------|
E--------------|

Verse

          G                         C
E-------------------------------------|
B---------12-----------------------13-|
G----------------------------------12-|
D---------12-----------------------10-|
A---------10--------------------------|
E-------------------------------------|
I've been waitin my whole life for a someone like you.

          G                      C
E-----------------------------------|
B---------12---------------------13-|
G--------------------------------12-|
D---------12---------------------10-|
A---------10------------------------|
E-----------------------------------|
To go and pick me up and take away my blues

          G                     C
E----------------------------------|
B---------12--------------------13-|
G-------------------------------12-|
D---------12--------------------10-|
A---------10-----------------------|
E----------------------------------|
It's been one hell of a year in my own shoes

      G         C           D
E-----------------------------|
B-----12--------13----------15|
G---------------12----------14|
D-----12--------10----------12|
A-----10----------------------|
E-----------------------------|
But I got some questions for you

Chorus

       E             D        C      G
E---------------------------------------|
B------17------------15-------13-----12-|
G------16------------14-------12--------|
D------14------------12-------10-----12-|
A------------------------------------10-|
E---------------------------------------|
Did it hurt when you fell from heaven?


       E             D        C           G
E--------------------------------------------|
B------17------------15-------13----------12-|
G------16------------14-------12-------------|
D------14------------12-------10----------12-|
A-----------------------------------------10-|
E--------------------------------------------|
Did it hurt just to know I was right here awaiting


       E              D            C             D     C#   C    G
E-------------------------------------------------------------------|
B------17-------------15-----------13------------15----14---13---12-|
G------16-------------14-----------12------------14----13---12------|
D------14-------------12-----------10------------12----11---10---12-|
A----------------------------------------------------------------10-|
E-------------------------------------------------------------------|
Did you know? Did you know? It was love from the first time we...touched.


Transition the last G chord into the next verse.

Verse 2

          G                         C
E-------------------------------------|
B---------12-----------------------13-|
G----------------------------------12-|
D---------12-----------------------10-|
A---------10--------------------------|
E-------------------------------------|
I've been waitin my whole life for a someone like you.

          G                      C
E-----------------------------------|
B---------12---------------------13-|
G--------------------------------12-|
D---------12---------------------10-|
A---------10------------------------|
E-----------------------------------|
To go and steal my heart just the way you do

          G                     C
E----------------------------------|
B---------12--------------------13-|
G-------------------------------12-|
D---------12--------------------10-|
A---------10-----------------------|
E----------------------------------|
It's been one hell of a year here waiting on you

      G          C           D
E------------------------------|
B-----12---------13----------15|
G----------------12----------14|
D-----12---------10----------12|
A-----10-----------------------|
E------------------------------|
But I got some questions for you


Chorus

       E             D        C      G
E---------------------------------------|
B------17------------15-------13-----12-|
G------16------------14-------12--------|
D------14------------12-------10-----12-|
A------------------------------------10-|
E---------------------------------------|
Did it hurt when you fell from heaven?


       E             D        C           G
E--------------------------------------------|
B------17------------15-------13----------12-|
G------16------------14-------12-------------|
D------14------------12-------10----------12-|
A-----------------------------------------10-|
E--------------------------------------------|
Did it hurt just to know I was right here awaiting


       E              D            C             D     C#   C    G
E-------------------------------------------------------------------|
B------17-------------15-----------13------------15----14---13---12-|
G------16-------------14-----------12------------14----13---12------|
D------14-------------12-----------10------------12----11---10---12-|
A----------------------------------------------------------------10-|
E-------------------------------------------------------------------|
Did you know? Did you know? It was love from the first time we...touched.

Transition the last G chord into the Outro

Outro

Here are the chords for the outro.  The strumming pattern isn't hard to figure out.

      G     C   D   C
E----------------------|
B-----12----13--15--13-|
G-----------12--14--12-|
D-----12----10--12--10-|
A-----10---------------|
E----------------------|

If there are any corrections or complaints just tell me and I'll fix them. Hokay?
            

comments powered by Disqus
↑ Back to top | Nevershoutnever Tabs for Did It Hurt. Lyrics for acoustic guitar and electric guitar. Tablatures and chords are parodies/interpretations of the original songs. You may use it for private study, scholarship, research or language learning purposes only