>
 >
Love And Affection

Love And Affection Bass Tabs

Neon Trees - Love And Affection chords, tabs, tablatures, lyrics

Guitar lessons | Add/correct | Request | Top 50 tabs Artists:  A B C D E F G H I J K L M N O P Q R S T U V W X Y Z 0-9

Love And Affection Bass Tabs – Neon Trees

CD, Sheet music, Poster

Do you like Love And Affection? Share with your friends now
Bass TabsTabs


E--------------------------------------------------------------------|
A--4--4-------4-4-4--------------4--4--------4-4-4-------------------|
D-------2--2-----------2--2--2---------2--2----------2--2--2---------|
G--------------------------------------------------------------------|


E------------------------------------------------------------------------------------|
A--11--11--------11-11-11----------11--11------11-11-11------------------------------|
D----------9--9------------9--9--9---------9--9--------------9--9--9-----------------|
G------------------------------------------------------------------------------------|


E-------------------------------------------------------------------|
A--4--4-------4-4-4------------4--4-------4-4-4---------------------|
D--------2--2--------2--2--2---------2--2---------2--2--2-----------|
G-------------------------------------------------------------------|


E--4--4-------4-4-4-------------4--4-------4-4-4--------------------|
A-------2--2-----------2--2--2-------2--2---------2--2--2-----------|
D-------------------------------------------------------------------|
G-------------------------------------------------------------------|


E--------------------------------------------------|
A--4--4----4-2-4-4-4---4--4----4-2-4-4-4-----------|
D--------------------------------------------------|
G--------6-------------------6---------------------|


E--4--4----4-2-4-4-4---4--4---4--------------------|
A---------------------------------------2----4--4--|
D--------6------------------------6----------------|
G-----------------------------------------4--------|


E--------------------------------------------------|
A--4--4----4-2-4-4-4---4--4----4-2-4-4-4-----------|
D--------------------------------------------------|
G--------6-------------------6---------------------|


E--4--4----4-2-4-4-4---4--4---4---------------------|
A---------------------------------------2----4--4---|
D--------6------------------------6-----------------|
G-----------------------------------------4---------|


E--------------------------------------------------|
A--4--4----4-2-4-4-4---4--4----4-2-4-4-4-----------|
D--------------------------------------------------|
G--------6-------------------6---------------------|


E--4--4----4-2-4-4-4---4--4---4--------------------|
A---------------------------------------2----4--4--|
D-------6------------------------6-----------------|
G-----------------------------------------4--------|


E--------------------------------------------------|
A--4--4----4-2-4-4-4---4--4----4-2-4-4-4-----------|
D--------------------------------------------------|
G--------6-------------------6---------------------|


E--4--4----4-2-4-4-4---4---4---9-9-9--------------------------------------------|
A------------------------------2-------------2--4--5--11--12-11-12-11-----------|
D-------6-----------------------------------------------------------------------|
G-------------------------------------------------------------------------------|


E----------------------------------------------------------------------------------------|
A--2--4--5--11--12--11-12-11-----2--4--5--11--12--11-12-11-----2--4--5--11--12--11-12-11-|
D----------------------------------------------------------------------------------------|
G----------------------------------------------------------------------------------------|


E--9 ~~~ --7--9 ~~~ --9--11 ~~~  --4-7-9-----7-9------------------|
A---------------------------------------------------7-7-----------|
D-----------------------------------------------------------------|
G-----------------------------------------------------------------|


E--9 ~~~ --7--9 ~~~ --9--11 ~~~ ------------------------------|
A-------------------------------------------11--11------------|
D----------------------------------------------9--9-9-9-9-----|
G-------------------------------------------------------------|


E--------------------------------------------------|
A--4--4----4-2-4-4-4---4--4----4-2-4-4-4-----------|
D--------------------------------------------------|
G--------6-------------------6---------------------|


E--4--4----4-2-4-4-4---4--4---4---------------------|
A---------------------------------------2----4--4---|
D--------6------------------------6-----------------|
G-----------------------------------------4---------|


E--------------------------------------------------|
A--4--4----4-2-4-4-4---4--4----4-2-4-4-4-----------|
D--------------------------------------------------|
G--------6-------------------6---------------------|


E--4--4----4-2-4-4-4---4--4---4--9-9-9--------------|
A---------------------------------------------------|
D--------6------------------6-----------------------|
G---------------------------------------------------|


E----------------------------------------------------------------------------------------|
A--2--4--5--11--12--11-12-11-----2--4--5--11--12--11-12-11-----2--4--5--11--12--11-12-11-|
D----------------------------------------------------------------------------------------|
G----------------------------------------------------------------------------------------|


E---------------------------------------------------------------------------------|
A--2--4--5--11--12--11-12-11----7----5--7----7-7-7-7-7-7-7-7----------------------|
D---------------------------------------------------------------------------------|
G---------------------------------------------------------------------------------|


E--14-14-14-14-14-14-14-14 ~~~ ------------------|
A------------------------------------------------|
D------------------------------------------------|
G------------------------------------------------|


E----------------------------------------------------------------------------------------|
A--2--4--5--11--12--11-12-11-----2--4--5--11--12--11-12-11-----2--4--5--11--12--11-12-11-|
D----------------------------------------------------------------------------------------|
G----------------------------------------------------------------------------------------|


E---------------------------------------------------------------------------------|
A--2--4--5--11--12--12-12-12-------2--4--5--11--12--11-12-11----------------------|
D---------------------------------------------------------------------------------|
G---------------------------------------------------------------------------------|


E----------------------------------------------------------------------------------------|
A--2--4--5--11--12--11-12-11-----2--4--5--11--12--11-12-11-----2--4--5--11--12--11-12-11-|
D----------------------------------------------------------------------------------------|
G----------------------------------------------------------------------------------------|


E--------------------------------------------------------------------|
A--4--4-------4-4-4--------------4--4--------4-4-4-------------------|
D--------2--2-----------2--2--2-------2--2----------2--2--2----------|
G--------------------------------------------------------------------|


E--------------------------------------------------------------------|
A--4--4-------4-4-4--------------4--4--------4-4-4-------------------|
D---------2--2-----------2--2--2-------2--2----------2--2--2---------|
G--------------------------------------------------------------------|





Comments


Popular Neon Trees tabs & chords
Animal 3 Chords
Animal 4 Chords
Mad Love Chords
Our War Chords
Our War 1 Chords
Your Surrender Chords
Animal Intro Tabs
Girls And Boys In School Tabs
In The Next Room 1 Tabs
Ericka Ukulele


Song lyrics



↑ Back to top | Tablatures and chords are parodies/interpretations of the original songs. You may use it for private study, scholarship, research or language learning purposes only
© 2014 AZChords.com Contact us | Privacy policy | DMCA | Add/correct tabs | Request tabs | Top 50 tabs