» » »

Love Affection Bass tabs (ver.1)

Artists:  A B C D E F G H I J K L M N O P Q R S T U V W X Y Z # 

Love Affection Bass tabs (ver.1)

Neon Trees
Rating:
0/5 (0 votes)

Tabs too difficult? Try these video lessons and learn fast.
                Two people requested tabs for this song on my bass cover of this song so I'm posting them here.
Enjoy!

Check out my bass cover of this song!


Check out my channel for more covers!


Intro (Bass comes in at 0:07)

G|-----------------------------------------------------------------|
D|-----2-2----2--2-2-2-----22-----2--2-2-2-------------------------|
A|-4-4-----444---------4-4----444----------------------------------| x2
E|-----------------------------------------------------------------|

(Those are 11's not 1's)

G|-----------------------------------------------------------------|
D|-------9-9-------9--9-9-9-------9-9-------9--9-9-9---------------|
A|-11-11-----111111---------11-11-----111111-----------------------| x2
E|-----------------------------------------------------------------|

G|-----------------------------------------------------------------|
D|-----2-2----2--2-2-2-----2-2----2--2-2-2-------------------------|
A|-4-4-----444---------4-4-----444---------------------------------| x2
E|-----------------------------------------------------------------|

G|-----------------------------------------------------------------|
D|-----------------------------------------------------------------|
A|-----2-2----2--2-2-2-----2-2----2--2-2-2-------------------------| x2
E|-4-4-----444---------4-4-----444---------------------------------|

Verse 1

G|-----6------------------6----------------------------------------|
D|-------------2--2-2-------------2--2-2---------------------------|
A|-4-4---4-2h4--------4-4---4-2h4----------------------------------|
E|-----------------------------------------------------------------|

G|------------------------------4----------------------------------|
D|-----6------------------6----------------------------------------|
A|-------------2--2-2---------2---3-3------------------------------|
E|-4-4---4-2h4--------4-4---4--------------------------------------|

Repeat the two lines above

Pre-Chorus 1

G|-----6------------------6----------------------------------------|
D|-------------2--2-2-------------2--2-2---------------------------|
A|-4-4---4-2h4--------4-4---4-2h4----------------------------------|
E|-----------------------------------------------------------------|

G|------------------------------4----------------------------------|
D|-----6------------------6----------------------------------------|
A|-------------2--2-2---------2---3-3------------------------------|
E|-4-4---4-2h4--------4-4---4--------------------------------------|

G|-----6------------------6----------------------------------------|
D|-------------2--2-2-------------2--2-2---------------------------|
A|-4-4---4-2h4--------4-4---4-2h4----------------------------------|
E|-----------------------------------------------------------------|

G|-----------------------------------------------------------------|
D|-----6----------------4------------------------------------------|
A|-------------2--2-2---------9-9-9-9------------------------------|
E|-4-4---4-2h4--------2---0-0--------------------------------------|

Chorus 1

G|-----------------------------------------------------------------|
D|-----------------------------------------------------------------|
A|-2---4---4---11---12-----11-12---11------------------------------| x4
E|-----------------------------------------------------------------|

Verse 2

G|-----------------------------------------------------------------|
D|-----------------------------------------------------------------|
A|---------------------9-11\-----------------7-7-------------------|
E|-9\-------7-9\-----------------------4-7-9-----9-7---------------|

G|-----------------------------------------------------------------|
D|-------------------------------------------9----9-99-99----------|
A|---------------------9-11\--------------11---11------------------|
E|-9\-------7-9\---------------------------------------------------|

Pre-Chorus 2

   Same as Pre-Chorus 1

Chorus 2

   Same are Chorus 1

Bridge Part 1

G|-----------------------------------------------------------------|
D|-----------------------------------------------------------------|
A|-7---------------5-7-------7-7-7-7-7-7-7-7-----------------------|
E|-----------------------------------------------------------------|

Bridge Part 2 (Bass comes in at 2:17)

G|-----------------------------------------------------------------|
D|-----------------------------------------------------------------|
A|-/14-14-14-14-14-14-14-14-14\------------------------------------|
E|-----------------------------------------------------------------|

Chorus 3

G|-----------------------------------------------------------------|
D|-----------------------------------------------------------------|
A|-2---4---4---11---12-----11-12---11------------------------------| x3
E|-----------------------------------------------------------------|

G|-----------------------------------------------------------------|
D|-----------------------------------------------------------------|
A|-2---4---11---12---12-----12-12---12-----------------------------|
E|-----------------------------------------------------------------|

G|-----------------------------------------------------------------|
D|-----------------------------------------------------------------|
A|-2---4---4---11---12-----11-12---11------------------------------| x4
E|-----------------------------------------------------------------|

Outro

G|-----------------------------------------------------------------|
D|-----2-2----2--2-2-------22-----2--2-2---------------------------|
A|-4-4-----444---------4-4----444----------------------------------| x2
E|-----------------------------------------------------------------|

| /  slide up
| \  slide down
| h  hammer-on
| p  pull-off
| ~  vibrato
| +  harmonic
| x  Mute note
            
Tabs too difficult? Try these video lessons and learn fast.




comments powered by Disqus
↑ Back to top | Tablatures and chords are parodies/interpretations of the original songs. You may use it for private study, scholarship, research or language learning purposes only