» » »

Neil Young, Down By The River Bass tabs (ver.2)

Artists:  A B C D E F G H I J K L M N O P Q R S T U V W X Y Z # 

Down By The River Bass tabs (ver.2)

Neil Young Tabs
Rating:
0/5 (0 votes)
Down By The River lessons Tabs too difficult? Try these video lessons and learn fast
                ----------------------------------------------------------------------------
			     Down By The River - Neil Young
----------------------------------------------------------------------------


Tuning: Standard

G|--------------------------------------------------------------------------|
D|--------------------------------------------------------------------------|
A|-77------77--------4-5-77--------4-5-repeat last eight notes several times|
E|----55-------7-7-55--------7-7-55-----------------------------------------|
    intro   Verse 
G|--------------------------------------------------------------------------|
D|---------------------2-5---040-4-----2-5---040-24---2-5---040-------------|
A|-----44-5/77-55----3-----32------2h3-----32-------3-----32----------------|
E|--55----------------------------------------------------------------------|
    Pre Chorus
G|--------------------------------------------------------------------------|
D|--------------------------------------------------------------------------|
A|-----55-5-------------------255-5-----------------------------------------|
E|--33-----5-5555----------33-------5-5555----------------------------------|
 Chorus             Chorus variation one
G|--------------------------------------------------------------------------|
D|--------------------------------------------------------------------------|
A|--77-7-------4-5-repeat----------77-7------44-5-5-------------------------|
E|----7--7-7-55----------------------7-7-7-55-------------------------------|
  Verse/solo variation one           Verse/solo variation two



| /  slide up
| \  slide down
| h  hammer-on
| p  pull-off
| ~  vibrato
| +  harmonic
| x  Mute note
=============================================================
            
Submit corrections

comments powered by Disqus
↑ Back to top | Neil Young Bass for Down By The River. Lyrics for acoustic guitar and electric guitar. Tablatures and chords are parodies/interpretations of the original songs. You may use it for private study, scholarship, research or language learning purposes only