» » »

Neil Young, Down By The River Bass tabs (ver.1)

Artists:  A B C D E F G H I J K L M N O P Q R S T U V W X Y Z # 

Down By The River Bass tabs (ver.1)

Neil Young Tabs
 Rating:
4/5 (4 votes)
Down By The River lessons Tabs too difficult? Try these video lessons and learn fast
1
                
No good versions of this around that tab out the many variations
on the riff (especially in the long central section).

     Intro
G-|-------------------|------------------|-----------------|
D-|-------------------|------------------|-----------------|
A-|-------------------|------------------|--7-7------------|
E-|-------------------|------------------|------------5-5--|

Verse
|-------------------------|------------------------|
|-------------------------|------------------------|
|-7-7--------------4--5--7|-7--------------4--5--7-|
|-------7--7--5-5---------| ---7--7--5-5-----------|

|------------------------|------------------------|
|------------------------|------------------------|
|-7---------------4--5--7|-7--------------4--5--7-|
|-----7--7--5-5----------| ---7--7--5-5-----------|

|------------------------|----------------------------|
|------------------------|----------------------------|
|-7---------------4--5--7|-7------------4-4---4-5-7-5-|
|-----7--7--5-5----------| ---7--7--5-5-----5---------|

Bridge
|--------------------------------|---------------------------------------|
|------2--5---------4-----4------|------2--5-2----------4-------2--4-----|
|-3----------3-2--5---5--------2-|-3-------------3-2--5----5-----------2-|
|--------------------------------|---------------------------------------|

                               Chorus
|----------------------------|-----------------------------------|
|-----2---5----------2--4----|-----------------------------------|
|-3----------3-2--5--------5-|-5---------5-5---5-----------------|
|----------------------------|---3-3---3-----------5--5--5-5-5-5-|

|-------------------------------|---------------------------------|
|-------------------------------|---------------------------------|
|--------5-5---5----------------|---------5-5---5-----------------|
|--3-3------------5--5--5-5-5-5-|--3-3-------------5--5---5-5-5-5-|

"Dead...shot her dead"
|-----------------|--------------------------|
|-----------------|--------------------------|
|-7---------------|-7-7---------------4--5--7|
|--------5-5-5----|-------7--7--5-5----------|

|------------------------|------------------------|
|------------------------|------------------------|
|-7---------------4--5--7|-7--------------4--5--7-|
|-----7--7--5-5----------|----7--7--5-5-----------|

Guitar Solos
|------------------------|------------------------|
|------------------------|------------------------|
|-7---------------4--5--7|-7--------------4--5--7-|
|-----7--7--5-5----------| ---7--7--5-5-----------|

|------------------------|-----------------------------|
|------------------------|-----------------------------|
|-7---------------4--5--7|-7--------------4-4--5--5--7-|
|-----7--7--5-5----------|----7--7--5-5----------------|

|------------------------|-----------------------------|
|------------------------|-----------------------------|
|-7---------------4--5--7|-7--------------4-4--5--5--7-|
|-----7--7--5-5----------|----7--7--5-5----------------|

|------------------------|------------------------|
|------------------------|------------------------|
|-7---------------4--5--7|-7--------------4--5--7-|
|-----7--7--5-5----------| ---7--7--5-5-----------|

|------------------------|------------------------|
|------------------------|------------------------|
|-7---------------4--5--7|-7--------------4--5--7-|
|-----7--7--5-5----------| ---7--7--5-5-----------|

|--------------------------|------------------------------|
|--------------------------|------------------------------|
|-7---7-------------4--5--7|-7---7------------4-4--5--5--7|
|---7---7--7--5-5----------|---7---7--7--5-5--------------|

|--------------------------|---------------------------|
|--------------------------|---------------------------|
|-7---7-------------4--5--7|-7---7--------------4--5--7|
|---7---7--7--5-5----------|---7---7--7--5-5-----------|

|------------------------------|---------------------------|
|------------------------------|---------------------------|
|-7---7------------4-4--5--5--7|-7---7--------------4--5--7|
|---7---7--7--5-5--------------|---7---7--7--5--5----------|

|--------------------------|------------------------------|
|--------------------------|------------------------------|
|-7---7-------------4--5--7|-7---7------------4-4--5--5--7|
|---7---7--7--5-5----------|---7---7--7--5-5--------------|

|------------------------------|------------------------------|
|------------------------------|------------------------------|
|-7---7------------4-4--5--5--7|-7---7------------4-4--5--5--7|
|---7---7--7--5-5--------------|---7---7--7--5-5--------------|

|------------------------------|------------------------------|
|------------------------------|------------------------------|
|-7---7------------4-4--5--5--7|-7---7------------4-4--5--5--7|
|---7---7--7--5-5--------------|---7---7--7--5-5--------------|

|------------------------------|------------------------------|
|------------------------------|------------------------------|
|-7---7------------4-4--5--5--7|-7---7------------4-4--5--5--7|
|---7---7--7--5-5--------------|---7---7--7--5-5--------------|

|------------------------------|------------------------------|
|------------------------------|------------------------------|
|-7---7------------4-4--5--5--7|-7---7------------4-4--5--5--7|
|---7---7--7--5-5--------------|---7---7--7--5-5--------------|

|------------------------------|------------------------------|
|------------------------------|------------------------------|
|-7---7------------4-4--5--5--7|-7---7------------4-4--5--5--7|
|---7---7--7--5-5--------------|---7---7--7--5-5--------------|

|------------------------------|------------------------------|
|------------------------------|------------------------------|
|-7---7------------4-4--5--5--7|-7---7------------4-4--5--5--7|
|---7---7--7--5-5--------------|---7---7--7--5-5--------------|

|------------------------------|------------------------------|
|------------------------------|------------------------------|
|-7---7------------4-4--5--5--7|-7---7------------4-4--5--5--7|
|---7---7--7--5-5--------------|---7---7--7--5-5--------------|

 Second Verse
|------------------------------|------------------------------|
|------------------------------|------------------------------|
|-7---7------------4-4--5--5--7|-7---7------------4-4--5--5--7|
|---7---7--7--5-5--------------|---7---7--7--5-5--------------|

|------------------------------|------------------------------|
|------------------------------|------------------------------|
|-7---7------------4-4--5--5--7|-7---7-----------4-4---4-5-7-5|
|---7---7--7--5-5--------------|---7---7--7--5-5-----5--------|

Bridge
|----------------------------------|--------------------------------------|
|------2--5----------4----2--4-----|------2--5-2----------4-------4--2----|
|-3----------3-2--5----5---------2-|-3-------------3-2--5----5-----------2|
|----------------------------------|--------------------------------------|

                              Chorus
|----------------------------|--------------------------------|
|-----2---5----------2--4----|--------------------------------|
|-3----------3-2--5--------5-|----------5-5--5----------------|
|----------------------------|--3-3--3----------5--5--5-5-5-5-|

|--------------------------------|---------------------------------|
|--------------------------------|---------------------------------|
|----------5-5--5----------------|-----------5-5--5----------------|
|--3-3--3----------5--5--5-5-5-5-|--3-3--3-----------5--5--5-5-5-5-|

"Dead....dead.."
|--------------------|---------------------------|
|--------------------|---------------------------|
|-------------4--5--7|-7-------------4-4--5--5--7|
|-0-----7-5----------|----7--7--5-5--------------|

Guitar Solos
|--------------------------|--------------------------|
|--------------------------|--------------------------|
|-7------------4-4--5--5--7|-7------------4-4--5--5--7|
|----7--7--5-5-------------|----7--7--5-5-------------|

|--------------------------|--------------------------|
|--------------------------|--------------------------|
|-7------------4-4--5--5--7|-7---7-------------4--5--7|
|----7--7--5-5-------------|---7---7--7--5-5----------|

|--------------------------|------------------------------|
|--------------------------|------------------------------|
|-7---7-------------4--5--7|-7---7------------4-4--5--5--7|
|---7---7--7--5-5----------|---7---7--7--5-5--------------|

|------------------------------|------------------------------|
|------------------------------|------------------------------|
|-7---7------------4-4--5--5--7|-7---7------------4-4--5--5--7|
|---7---7--7--5-5--------------|---7---7--7--5-5--------------|

|------------------------------|------------------------------|
|------------------------------|------------------------------|
|-7---7------------4-4--5--5--7|-7---7------------4-4--5--5--7|
|---7---7--7--5-5--------------|---7---7--7--5-5--------------|

|-------------------------|--------------------------|
|-------------------------|--------------------------|
|------------------4--5--7|-7-----7---7-------4--5--7|
|-0-------7--5-5----------|-----7---7---7-5-5--------|

|------------------------------|-------------------------------|
|------------------------------|-------------------------------|
|-7----7-------------4-4--5--5-|-7----7--------------4-4--5--5-|
|----7---7---7--5-5------------|----7---7---7--5-5-------------|

|------------------------------|-----------------------------|
|------------------------------|-----------------------------|
|-7---7---7---------4-4--5--5--|-7--7------------4-4--5--5--7|
|---7---7---7--5-5-------------|-----7--7--5-5---------------|

                                Verse Three
|------------------------------|------------------------------|
|------------------------------|------------------------------|
|-7---7------------4-4--5--5--7|-7---7------------4-4--5--5--7|
|---7---7--7--5-5--------------|---7---7--7--5-5--------------|

|------------------------------|------------------------------|
|------------------------------|------------------------------|
|-7---7------------4-4--5--5--7|-7---7------------4-4--5--5--7|
|---7---7--7--5-5--------------|---7---7--7--5-5--------------|

|--------------------------------|
|--------------------------------|
|-7---7------------4-4---4-5-7-5-|
|---7---7--7--5-5------5---------|

Bridge
|--------------------------------|-----------------------------------|
|------2--5---------4----2--4----|------2--5-2---------4-----4--2----|
|-3----------3-2--5---5--------2-|-3------------3-2--5---5---------2-|
|--------------------------------|-----------------------------------|

                              Chorus - fade out
|----------------------------|-------------------------------|
|-----2---5----------2--4----|-------------------------------|
|-3----------3-2--5--------5-|---------5-5--5----------------|
|----------------------------|--3-3--3---------5--5--5-5-5-5-|

|-------------------------------|--------------------------------|
|-------------------------------|--------------------------------|
|---------5-5--5----------------|---------5-5--5-----------------|
|--3-3--3---------5--5--5-5-5-5-|--3-3--3---------5--5---5-5-5-5-|
            
Submit corrections

comments powered by Disqus
↑ Back to top | Neil Young Bass for Down By The River. Lyrics for acoustic guitar and electric guitar. 1 Tablatures and chords are parodies/interpretations of the original songs. You may use it for private study, scholarship, research or language learning purposes only