» » »

Neil Young, Down By The River Tabs (ver.1)

Artists:  A B C D E F G H I J K L M N O P Q R S T U V W X Y Z # 

Down By The River Tabs (ver.1)

Neil Young Tabs
 Rating:
4/5 (4 votes)
Down By The River lessons Tabs too difficult? Try these video lessons and learn fast
                This is a simple song to play.

Verse
    E                       A
e|--------------------------------------------------|
B|--3--3--3--3--3--3--3--3--2--2--2--2--2--2--2--2--|
G|--0--0--0--0--0--0--0--0--2--2--2--2--2--2--2--2--|
D|--2--2--2--2--2--2--2--2--2--2--2--2--2--2--2--2--|
A|--2--2--2--2--2--2--2--2--0--0--0--0--0--0--0--0--|
E|--------------------------------------------------|
    ^ listen to the song for strum pattern

Little riffs to be played over the verse chords
e|------------------------------------------------|
B|-------3----------------------------------------|
G|--2/4-----4/2--0--------------------------------|
D|-------------------2--------2--0--2--0--2--0----|
A|------------------------------------------------|
E|------------------------------------------------|
    ^start on the A chord


e|------------------------------------|
B|---------------------------------2--|
G|-------------------------------2----|
D|---------2---2--2--0--2------2------|
A|--0h1h2------------------0----------|
E|------------------------------------|

Chorus
    Bm          D            A
e|--------------2----2----2--0--------------------|
B|--3-------3---3----3----3--2--------------------|
G|--4-------4---2----2----2--2--------------------|
D|--4-------4---0----0----0--2----2-2-2-2-2-2-2-2-|
A|--2-------2----------------0----0-0-0-0-0-0-0-0-|
E|------------------------------------------------|

The solo is just based on these four notes
e|-------------------------------------------|
B|-------------------------------------------|
G|-------------------------------------------|
D|---------5--7------------------------------|
A|---5--7------------------------------------|
E|-------------------------------------------|
            
Submit corrections

comments powered by Disqus
↑ Back to top | Neil Young Tabs for Down By The River. Lyrics for acoustic guitar and electric guitar. Tablatures and chords are parodies/interpretations of the original songs. You may use it for private study, scholarship, research or language learning purposes only