» » »

Nazareth, Hair Of The Dog Tabs (ver.3)

Artists:  A B C D E F G H I J K L M N O P Q R S T U V W X Y Z # 

Hair Of The Dog Tabs (ver.3)

Nazareth Tabs
 Rating:
3.1/5 (7 votes)
Hair Of The Dog lessons Tabs too difficult? Try these video lessons and learn fast
1
                (Intro)
This is my first tab, and im pretty sure i did it right.. but, here is the real way to 
hair of the dog. well at least the intro (MJH)


e:-----------------------------|
b:-----------------------------|
g:------------------------ <---| Play this 6 times
d:----------2-5----------------|
a:2--------2---7-5-7-----------|
e:0--0-3-4---------------------|


e:------------------------|
b:------------------------|
g:----------2-5-----------|
d:2-------2----7-5-7------|
a:0-0-3-4-----------------|
e:------------------------|


e:------------------------|
b:------------------------|
g:----------2-2-5---------|
d:2-------2-2-2--7-5-7----|
a:0-0-3-4-----------------|
e:------------------------|
            
Submit corrections

comments powered by Disqus
↑ Back to top | Nazareth Tabs for Hair Of The Dog. Lyrics for acoustic guitar and electric guitar. 1 Tablatures and chords are parodies/interpretations of the original songs. You may use it for private study, scholarship, research or language learning purposes only