» » »

Hair Of The Dog Bass tabs (ver.3)

Artists:  A B C D E F G H I J K L M N O P Q R S T U V W X Y Z # 

Hair Of The Dog Bass tabs (ver.3)

Nazareth
Rating:
0/5 (0 votes)

Tabs too difficult? Try these video lessons and learn fast.
                This song is a beast, and this tab sounds good, so yeah...

G/------------------------/
D/----------2--5-2-0-2----/
A/---------2--------------/
E/-0--0-3-2---------------/ x8

G/----------2--5-2-0-2----/
D/---------2--------------/
A/-0--0-3-2---------------/
E/------------------------/ x3


G/------------------------/
D/----------2--5-2-0-2----/
A/---------2--------------/
E/-0--0-3-2---------------/ x3

G/------------------------/
D/------------------------/
A/-----12/----------------/
E/0-3/5---33-55-----------/ x3

G/------------------------/
D/----------2--5-2-0-2----/
A/---------2--------------/
E/-0--0-3-2---------------/ x6


G/----------2--5-2-0-2----/
D/---------2--------------/
A/-0--0-3-2---------------/
E/------------------------/ x3

G/------------------------/
D/----------2--5-2-0-2----/
A/---------2--------------/
E/-0--0-3-2---------------/ x3

G/------------------------/
D/------------------------/
A/-----12/----------------/
E/0-3/5---33-55-----------/ x3

G/------------------------/
D/----------2--5-2-0-2----/
A/---------2--------------/
E/-0--0-3-2---------------/ x3

During the solo theres no bass

G/------------------------/
D/----------2--5-2-0-2----/
A/---------2--------------/
E/-0--0-3-2---------------/ x3

G/------------------------/
D/------------------------/
A/------------------------/
E/-2-2-2-2-2-2-2-2-2-2-2-2/ During the spoken "Nown your messin' with a, son of a b**ch"

G/------------------------/
D/----------2--5-2-0-2----/
A/---------2--------------/
E/-0--0-3-2---------------/

Yeah so you can just do that for the rest of the song... beastley tab if i do say so myself...
            
Tabs too difficult? Try these video lessons and learn fast.




comments powered by Disqus
↑ Back to top | Tablatures and chords are parodies/interpretations of the original songs. You may use it for private study, scholarship, research or language learning purposes only