» » »

Hair Of The Dog Tabs (ver.2)

Artists:  A B C D E F G H I J K L M N O P Q R S T U V W X Y Z # 

Hair Of The Dog Tabs (ver.2)

Nazareth
Rating:
4.4/5 (29 votes)

Hard to play? Try these video lessons and learn fast.
                -------------------------------------------------------------------------------
			     Hair Of The Dog - Nazareth
-------------------------------------------------------------------------------

Tuning: Standard* - Typically when a guitar or piano or whatever
 is tuned it is tuned at 440Hz, but in the case of this song the tuning
 is done at 433Hz. So if you can adjust the Hz on your tuner simply 
place it at 433Hz, if you can not then tune your guitar down slightly 
between say E and Eb and likewise with the subsequent strings. 

Starts @ 0:08

		X6
e|-------------------------|
B|-------------------------|
G|-------------------------|
D|------------2--5b--2--2--|
A|----------2---------5----|
E|-0--0-3-4----------------|
						
e|--------------------------|---------------------------|
B|--------------------------|---------------------------|
G|------------2--5b6--2--2--|------------2--5b7--2------|
D|----------2----------5----|----------2----------5--2--|
A|-0--0-3-4-----------------|-0--0-3-4------------------|
E|--------------------------|---------------------------|

		X2
e|-------------------------|
B|-------------------------|
G|-------------------------|
D|------------2--5b--2--2--|
A|----------2---------5----|
E|-0--0-3-4----------------|

Chorus:
			   X2
e|---------------|------------------|
B|---------------|------------------|
G|-9-------------|-9----7-7-/-9-9\--|
D|-9----5---/7\--|-9----7-7-/-9-9\--|
A|-7----5--/-7\--|-7----5-5-/-7-7\--|
E|------3-/--5\--|------------------|

		X6
e|-------------------------|
B|-------------------------|
G|-------------------------|
D|------------2--5b--2--2--|
A|----------2---------5----|
E|-0--0-3-4----------------|

e|--------------------------|---------------------------|
B|--------------------------|---------------------------|
G|------------2--5b6--2--2--|------------2--5b7--2------|
D|----------2----------5----|----------2----------5--2--|
A|-0--0-3-4-----------------|-0--0-3-4------------------|
E|--------------------------|---------------------------|

		X2
e|-------------------------|
B|-------------------------|
G|-------------------------|
D|------------2--5b--2--2--|
A|----------2---------5----|
E|-0--0-3-4----------------|

Chorus		   X2
e|---------------|------------------|
B|---------------|------------------|
G|-9-------------|-9----7-7-/-9-9\--|
D|-9----5---/7\--|-9----7-7-/-9-9\--|
A|-7----5--/-7\--|-7----5-5-/-7-7\--|
E|------3-/--5\--|------------------|

			X2
e|-------------------------|
B|-------------------------|
G|-------------------------|
D|------------2--5b--2--2--|
A|----------2---------5----|
E|-0--0-3-4----------------|

TalkBox Solo:
					All x2
e|-----|----|------------|    |----|----------|
B|---R-|----|------------|    |----|----------|
G|-9-E-|-9--|------------|    |-9--|--7--5--4-|
D|-9-S-|-9--|--5-5-\-7-7-| X2 |-9--|--7--5--4-|
A|-7-T-|-7--|--5-5-\-7-7-|    |-7--|--5--3--2-|
E|-----|----|--3-3-\-5-5-|    |----|----------|

			X2
e|-------------------------|
B|-------------------------|
G|-------------------------|
D|------------2--5b--2--2--|
A|----------2---------5----|
E|-0--0-3-4----------------|

Chorus		   X9
e|---------------|------------------|
B|---------------|------------------|
G|-9-------------|-9----7-7-/-9-9\--|
D|-9----5---/7\--|-9----7-7-/-9-9\--|
A|-7----5--/-7\--|-7----5-5-/-7-7\--|
E|------3-/--5\--|------------------|
To Fade:::
            
Hard to play? Try these video lessons and learn fast. | Correct




comments powered by Disqus
↑ Back to top | Tablatures and chords are parodies/interpretations of the original songs. You may use it for private study, scholarship, research or language learning purposes only