» » »

Nazareth, Hair Of The Dog Bass tabs (ver.2)

Artists:  A B C D E F G H I J K L M N O P Q R S T U V W X Y Z # 

Hair Of The Dog Bass tabs (ver.2)

Nazareth Tabs
Rating:
4/5 (1 vote)
Hair Of The Dog lessons Tabs too difficult? Try these video lessons and learn fast
                
HAIR OF THE DOG (Bassline)





 

 

Gtr I (E A D G) - 'Staff'


  Q=132
 4/4
  Gtr I
  W          W          W          W
|----------|----------|----------|------|
|----------|----------|----------|------|
|----------|----------|----------|------|
|----------|----------|----------|------|


  Q  +S  S E E E S S E   +H     E E E E
|----------------------|--------0-------|
|--------------------2-|-(2)------2-0-2-|
|----------------2-----|----------------|
|-0--(0)---0-3-4-------|----------------|


  Q  +S  S E E E S S E   +H     E E E E
|----------------------|--------0-------|
|--------------------2-|-(2)------2-0-2-|
|----------------2-----|----------------|
|-0--(0)---0-3-4-------|----------------|


  Q  +S  S E E E S S E   +H     E E E E
|----------------------|--------0-------|
|--------------------2-|-(2)------2-0-2-|
|----------------2-----|----------------|
|-0--(0)---0-3-4-------|----------------|


  Q  +S  S E E E S S E   +H     E E E E
|----------------------|--------0-------|
|--------------------2-|-(2)------2-0-2-|
|----------------2-----|----------------|
|-0--(0)---0-3-4-------|----------------|


  Q  +S  S E E E S S E   +H     E E E E
|----------------------|--------0-------|
|--------------------2-|-(2)------2-0-2-|
|----------------2-----|----------------|
|-0--(0)---0-3-4-------|----------------|


  Q  +S  S E E E S S E   +H     E E E E
|----------------------|--------0-------|
|--------------------2-|-(2)------2-0-2-|
|----------------2-----|----------------|
|-0--(0)---0-3-4-------|----------------|


  Q  +S  S E E E S S E   +H     E E E S S
|----------------------|------------------|
|----------------2-----|------------------|
|-0--(0)---0-3-4-----0-|-(0)----3-0---0---|
|----------------------|------------3-----|


  Q  +S  S E E E S S E   +H     E E E E
|----------------------|-----------------|
|----------------2-----|-----------------|
|-0--(0)---0-3-4-----0-|-(0)----3-0---0--|
|----------------------|------------3----|


  Q  +S  S E E E S S E   +H     E E E E
|----------------------|--------0-------|
|--------------------2-|-(2)------2-0-2-|
|----------------2-----|----------------|
|-0--(0)---0-3-4-------|----------------|


  Q  +S  S E E E S S E   +H     E E E E
|----------------------|--------0-------|
|--------------------2-|-(2)------2-0-2-|
|----------------2-----|----------------|
|-0--(0)---0-3-4-------|----------------|


  Q  Q  Q  Q    Q  Q  H      Q  Q  H      E E E E Q  Q
|-------------|------------|------------|---------------|
|-------------|------------|------------|---------------|
|-------------|-0----------|------------|---5-5-7-7-----|
|-0--------3--|------------|-0----------|---------------|


  Q  Q  Q  Q    Q  Q  H      Q  Q  H      E E E E Q  Q
|-------------|------------|------------|---------------|
|-------------|------------|------------|---------------|
|-------------|-0----------|------------|---5-5-7-7-----|
|-0--------3--|------------|-0----------|---------------|


  Q  Q  H      W          W          W
|------------|----------|----------|------|
|------------|----------|----------|------|
|-7----------|----------|----------|------|
|------------|----------|----------|------|


  Q  Q  H      E E E E Q  Q    Q  Q  H      W
|------------|---------------|------------|------|
|------------|---------------|------------|------|
|------------|-------0-0-----|------------|------|
|-0----------|---3-3---------|-0----------|------|


  Q  Q  H      E E E E Q  Q    Q  Q  H      E E +S  S E +S  S E +Q
|------------|---------------|------------|--------------------------|
|------------|---------------|------------|--------------------------|
|------------|-------0-0-----|------------|---5-(5)---3-(3)---2-(2)--|
|-0----------|---3-3---------|-0----------|--------------------------|


  Q  Q  H      E E E E Q  Q    Q  Q  H      W
|------------|---------------|------------|------|
|------------|---------------|------------|------|
|------------|-------0-0-----|------------|------|
|-0----------|---3-3---------|-0----------|------|


  Q  Q  H      E E E E Q  Q    Q  Q  H      E E +S  S E +S  S E +Q
|------------|---------------|------------|--------------------------|
|------------|---------------|------------|--------------------------|
|------------|-------0-0-----|------------|---5-(5)---3-(3)---2-(2)--|
|-0----------|---3-3---------|-0----------|--------------------------|


  Q  +S  S E E E S S E   +H     E E E E
|----------------------|--------0-------|
|--------------------2-|-(2)------2-0-2-|
|----------------2-----|----------------|
|-0--(0)---0-3-4-------|----------------|


  Q  +S  S E E E S S E   +H     E E E E
|----------------------|--------0-------|
|--------------------2-|-(2)------2-0-2-|
|----------------2-----|----------------|
|-0--(0)---0-3-4-------|----------------|


  E E E E E E E E   E E E E E E E E   E E E E E E E E   E E E E E E E E
|-----------------|-----------------|-----------------|-----------------|
|-2-2-2-2-2-2-2-2-|-2-2-2-2-2-2-2-2-|-2-2-2-2-2-2-2-2-|-2-2-2-2-2-2-2-2-|
|-----------------|-----------------|-----------------|-----------------|
|-----------------|-----------------|-----------------|-----------------|


  E E E E E E E E   E E E E E E E E   E E E E E E E E   E E E E E E E E
|-----------------|-----------------|-----------------|-----------------|
|-2-2-2-2-2-2-2-2-|-2-2-2-2-2-2-2-2-|-2-2-2-2-2-2-2-2-|-2-2-2-2-2-2-2-2-|
|-----------------|-----------------|-----------------|-----------------|
|-----------------|-----------------|-----------------|-----------------|


  E E E E E E E E   E E E E E E E E   E E E E E E E E   E E E E E E E E
|-----------------|-----------------|-----------------|-----------------|
|-2-2-2-2-2-2-2-2-|-2-2-2-2-2-2-2-2-|-2-2-2-2-2-2-2-2-|-2-2-2-2-2-2-2-2-|
|-----------------|-----------------|-----------------|-----------------|
|-----------------|-----------------|-----------------|-----------------|


  E E E E E E E E   E E E E E E E E   E E E E E E E E   E E E E E E E E
|-----------------|-----------------|-----------------|-----------------*|
|-2-2-2-2-2-2-2-2-|-2-2-2-2-2-2-2-2-|-2-2-2-2-2-2-2-2-|-2-2-2-2-2-2-2-2-*|
|-----------------|-----------------|-----------------|-----------------*|
|-----------------|-----------------|-----------------|-----------------*|




--------------------------------------------------------------------------------


Duration Legend
---------------
W - whole; H - half; Q - quarter; E - 8th; S - 16th; T - 32nd; X - 64th; a - acciaccatura
+ - note tied to previous; . - note dotted; .. - note double dotted
Uncapitalized letters represent notes that are staccato (1/2 duration)
Irregular groupings are notated above the duration line
Duration letters will always appear directly above the note/fret number it represents the
duration for.  Duration letters with no fret number below them represent rests.  Multi-
bar rests are notated in the form Wxn, where n is the number of bars to rest for.  Low
melody durations appear below the staff

Tablature Legend
----------------
 h   - hammer-on
 p   - pull-off
 b   - bend
 pb  - pre-bend
 r   - bend release (if no number after the r, then release immediately)
 /\  - slide into or out of (from/to "nowhere")
 s   - legato slide
 S   - shift slide
 - natural harmonic
[n]  - artificial harmonic
n(n) - tapped harmonic
 ~   - vibrato
 tr  - trill
 T   - tap
 TP  - trem. picking
 PM  - palm muting
\n/  - tremolo bar dip; n = amount to dip
 \n  - tremolo bar down
 n/  - tremolo bar up
/n\  - tremolo bar inverted dip
 =   - hold bend; also acts as connecting device for hammers/pulls
 <> - volume swell (louder/softer)
 x   - on rhythm slash represents muted slash
 o   - on rhythm slash represents single note slash

Misc Legend
-----------
 |  - bar
||  - double bar
||o - repeat start
o|| - repeat end
*|  - double bar (ending)
 :  - bar (freetime)
 $  - Segno
 &  - Coda
Tempo markers -  = BPM(8/16=s8/s16), where s8 = swing 8ths, s16 = swing 16ths



--------------------------------------------------------------------------------
            
Submit corrections

comments powered by Disqus
↑ Back to top | Nazareth Bass for Hair Of The Dog. Lyrics for acoustic guitar and electric guitar. Tablatures and chords are parodies/interpretations of the original songs. You may use it for private study, scholarship, research or language learning purposes only