» » »

National Anthems, Star Spangled Banner Tabs (ver.3)

Artists:  A B C D E F G H I J K L M N O P Q R S T U V W X Y Z # 

Star Spangled Banner Tabs (ver.3)

National Anthems Tabs
 Rating:
4/5 (4 votes)
Star Spangled Banner lessons Tabs too difficult? Try these video lessons and learn fast
1
                STAR SPANGLED BANNER

E--0-------0-5--9-7-5------------9-7-5-4-2-4-5-5--------|
B----1---1------------2-4-5--5-5-----------------4-1----|
G------1---------------------------------------------1--|
D-------------------------------------------------------|
A-------------------------------------------------------|
E-------------------------------------------------------|

E--0-------0-5--9-7-5------------9-7-5-4-2-4-5-5--------|
B----1---1------------2-4-5--5-5-----------------4-1----|
G------1---------------------------------------------1--|
D-------------------------------------------------------|
A-------------------------------------------------------|
E-------------------------------------------------------|

E--9-9-9-10-12-12--10-9-7-9-10-10----|
B------------------------------------|
G------------------------------------|
D------------------------------------|
A------------------------------------|
E------------------------------------|

E--10-9--7-5-4--2-4-5--5--------|
B------------------------4-1----|
G----------------------------1--|
D-------------------------------|
A-------------------------------|
E-------------------------------|

E--0-5-5-5-4-2-2-2-7-10-9-7-5---4--|
B----------------------------------|
G----------------------------------|
D----------------------------------|
A----------------------------------|
E----------------------------------|

E-0-0-5--7-9-10-12---5-7-9--10-7--5--|
B------------------------------------|
G------------------------------------|
D------------------------------------|
A------------------------------------|
E------------------------------------|

Thats it. Im almost positive its right. Its real easy after you gat the hang of it.

P.S: To make this sound cooler, add reverb and distortion.
            
Submit corrections

comments powered by Disqus
↑ Back to top | National Anthems Tabs for Star Spangled Banner. Lyrics for acoustic guitar and electric guitar. 1 Tablatures and chords are parodies/interpretations of the original songs. You may use it for private study, scholarship, research or language learning purposes only