» » »

National Anthems, O Canada Tabs (ver.1)

Artists:  A B C D E F G H I J K L M N O P Q R S T U V W X Y Z # 

O Canada Tabs (ver.1)

National Anthems Tabs
 Rating:
4/5 (4 votes)
O Canada lessons Tabs too difficult? Try these video lessons and learn fast
1
                This is the Canadian National anthem. 

e--------------------------------------------------------------------
B------------------0------------------0-2-2-0-0----------------------
G---2-2--------0-2--------------1-1-2-----------2------0-------0-2---
D-4-----0--2-4-------2~------4---------------------2-4---4-2-4-------
A--------------------------------------------------------------------
E--------------------------------------------------------------------


e----------------------------------------------------------------
B-----------0----------------------------------------------------
G---0---0-2---2-0------------0-------0-2-0-------2-2-1---0-2~----
D-----4-----------4-2~---2-4---4-2-4-------4-4-2-------4---------
A----------------------------------------------------------------
E----------------------------------------------------------------


e------------------------------------------------------------------
B------------0-0------------0-----------------3-3-0----------------
G---2-2----0---------2-3--3----0-----------2--------0-----2--------
D-4-----0~-------2~--------------4-2-0-2-4------------4-2----------
A------------------------------------------------------------------
E------------------------------------------------------------------

Different endings
e---------or-------------------------
B---------or---2-3-------------------
G---------or-------------------------
D---0-----or-------------------------
A-4-------or-------------------------
E---------or-------------------------
            
Submit corrections

comments powered by Disqus
↑ Back to top | National Anthems Tabs for O Canada. Lyrics for acoustic guitar and electric guitar. 1 Tablatures and chords are parodies/interpretations of the original songs. You may use it for private study, scholarship, research or language learning purposes only