» » »

National Anthems, Star Spangled Banner Tabs (ver.2)

Artists:  A B C D E F G H I J K L M N O P Q R S T U V W X Y Z # 

Star Spangled Banner Tabs (ver.2)

National Anthems Tabs
 Rating:
3.8/5 (5 votes)
Star Spangled Banner lessons Tabs too difficult? Try these video lessons and learn fast
                |-------0--420-----------0-24--2-0-----0-0-----|
|-0----0-------------0------------4-2-4---0----|
|--1--1---------1--3------------------------1--| X2
|---2-----------------------------------------2|
|----------------------------------------------|
|----------------------------------------------|


|-0-2--4---4--5--7-----7-5-2--2--4-5----5-4--2-0------0-----|
|-----------------------------------------------4--2-4-----0|
|-------------------------------------------------------1-3-|
|-----------------------------------------------------------|
|-----------------------------------------------------------|
|-----------------------------------------------------------|


|-0--5--5--5-4-2-2-2--7-10-9-7-5--5---4----|
|------------------------------------------|
|------------------------------------------|
|------------------------------------------|
|------------------------------------------|
|------------------------------------------|


|-0-2-4--4--5--7-----0-2-4---5--2----0---|
|----------------------------------------|
|----------------------------------------|
|----------------------------------------|
|----------------------------------------|
|----------------------------------------|

this song is very easy too learn.  I'm sure it's 100% right. Have fun with it.
            
Submit corrections

comments powered by Disqus
↑ Back to top | National Anthems Tabs for Star Spangled Banner. Lyrics for acoustic guitar and electric guitar. Tablatures and chords are parodies/interpretations of the original songs. You may use it for private study, scholarship, research or language learning purposes only