» » »

National Anthems, Star Spangled Banner Tabs (ver.1)

Artists:  A B C D E F G H I J K L M N O P Q R S T U V W X Y Z # 

Star Spangled Banner Tabs (ver.1)

National Anthems Tabs
 Rating:
4/5 (4 votes)
Star Spangled Banner lessons Tabs too difficult? Try these video lessons and learn fast
1
                |--0--------0---5--9-7-5--------0-0-9-7-5-4-2-4-5-5--------|
|----2---2---------------2-4-5----------------------5-2----|
|------2------------------------------------------------2--|  x2
|----------------------------------------------------------|
|----------------------------------------------------------|
|----------------------------------------------------------|
 

|--9-9-9-10-12-12--10-9-7-9-10-10---10-9-7-5-4-2-4-5---------|
|----------------------------------------------------2-4-5---|
|------------------------------------------------------------|
|------------------------------------------------------------|
|------------------------------------------------------------|
|------------------------------------------------------------|


|--0-5-5-5-4-2-2-2--7--9-10-9-7-5-5--4-----------|
|------------------------------------------------|
|------------------------------------------------|
|------------------------------------------------|
|------------------------------------------------|
|------------------------------------------------|
 

|--0-0-5--7-9-10-12--5-7-9-10-7-5-----------------|
|-------------------------------------------------|
|-------------------------------------------------|
|-------------------------------------------------|
|-------------------------------------------------|
|-------------------------------------------------|
            
Submit corrections

comments powered by Disqus
↑ Back to top | National Anthems Tabs for Star Spangled Banner. Lyrics for acoustic guitar and electric guitar. 1 Tablatures and chords are parodies/interpretations of the original songs. You may use it for private study, scholarship, research or language learning purposes only