» » »

Solitaire Unraveling Tabs (ver.5)

Artists:  A B C D E F G H I J K L M N O P Q R S T U V W X Y Z # 

Solitaire Unraveling Tabs (ver.5)

Mushroomhead
Rating:
0/5 (0 votes)

Hard to play? Try these video lessons and learn fast.
                -------------------------------------------------------------------------------
                             Mushroomhead -Solitaire / Unraveling
-------------------------------------------------------------------------------

Listen to the song to get the EXACT timing down, and you might have to tinker around 
your distortion and other effects on some parts..

Tuning:7 String: ADGCFAD

(after synth intro)                              (bass only here)
D|---------------------------------3/24--------------------------------------|
A|---------------------------------------------------------------------------|
F|---------------------------------------------------------------------------|
C|---------------------------------------------------------------------------|
G|---------------------------------------------------------------------------|
D|--8--7--6------------------------------------------------------------------|
A|--6--5--4-------------12/3/0-----------------------------------------------|
   P.M......
  (guitar kicks in)
D|----------------------------------------------------------------24\3-------|
A|-------------------------------------------------------------------3/24----|
F|---------------------------------------------------------------------------|
C|---------------------------------------------------------------------------|
G|---------------------------------------------------------------------------|
D|-4-4--4-4--4-4----4-4--4-4--4-4----4-4--4-4--4-4----4-4--4-4--4------------|
A|-2-2--2-2--2-2----2-2--2-2--2-2----2-2--2-2--2-2----2-2--2-2--2------------|
  P.M............................................................
D|------------------------------------|
A|------------------------------------|
F|------------------------------------|
C|------------------------------------|
G|-----4-7-----4-7--------------------|
D|-4-6-2-5-4-6-2-5-4-7-6-5------------|  X 4
A|-2-4-----2-4-----2-5-4-3------------|

D|----------------------------------------------------------------24\3-------|
A|-------------------------------------------------------------------3/24----|
F|---------------------------------------------------------------------------|
C|---------------------------------------------------------------------------|
G|---------------------------------------------------------------------------|
D|-4-4--4-4--4-4----4-4--4-4--4-4----4-4--4-4--4-4----4-4--4-4--4------------|
A|-2-2--2-2--2-2----2-2--2-2--2-2----2-2--2-2--2-2----2-2--2-2--2------------|
  P.M............................................................
D|------------------------------------|
A|------------------------------------|
F|------------------------------------|
C|------------------------------------|
G|-----4-7-----4-7--------------------|
D|-4-6-2-5-4-6-2-5-4-7-6-5------------|  X 8
A|-2-4-----2-4-----2-5-4-3------------|

(synth solo)
D|-----------------------------------x-x---x-x---------------|
A|-----------------------------------x-x---x-x---------------|
F|-----------------------------------x-x---x-x---------------|
C|-----------------------------------x-x---x-x---------------|
G|-----------------------------------x-x---x-x---------------|
D|--4/6----4/6---------4/6----4/6----x-x---x-x---------------|  X 2
A|--2/4----2/4---------2/4----2/4----x-x---x-x---------------|

D|---------------------------------------------|
A|---------------------------------------------|
F|---------------------------------------------|
C|---------------------------------------------|
G|---------------------------------------------|
D|--4/6-44444-4/6-44444444---------------------|  X 2
A|--2/4-22222-2/4-22222222---------------------|
       P.M...     P.M.....
D|-------------------------------------------|
A|-------------------------------------------|
F|---4-4--5-5--5--55--5-5--4-4--4--44--------|
C|---2-2--3-3--3--33--3-3--2-2--2--22--------|
G|-------------------------------------------| X 4
D|-------------------------------------------|
A|-------------------------------------------|
                 P.M              P.M

D|-------------------------------|
A|-------------------------------|
F|-4-44444--4-444444-------------|
C|-2-22222--2-222222-------------|
G|-------------------------------| X 3
D|-------------------------------|
A|-------------------------------|
    P.M...    P.M....
D|----------------------------------------------------------------|
A|--9---10----12-13-----9----9----10-----12-13----9/0-------------|
F|---9-----9--------9----9----9------9---------9------------------|
C|----9-----9---------9---9----9------9---------9-----------------|
G|----------------------------------------------------------------|
D|----------------------------------------------------------------|
A|----------------------------------------------------------------|

D|-----------------------------------x-x---x-x---------------|
A|-----------------------------------x-x---x-x---------------|
F|-----------------------------------x-x---x-x---------------|
C|-----------------------------------x-x---x-x---------------|
G|-----------------------------------x-x---x-x---------------|
D|--4/6----4/6---------4/6----4/6----x-x---x-x---------------|  X 2
A|--2/4----2/4---------2/4----2/4----x-x---x-x---------------|

D|---------------------------------------------|
A|---------------------------------------------|
F|---------------------------------------------|
C|---------------------------------------------|
G|---------------------------------------------|
D|--4/6-44444-4/6-44444444---------------------|  X 2
A|--2/4-22222-2/4-22222222---------------------|
       P.M...     P.M.....

D|-------------------------------|
A|-------------------------------|
F|-4-44444--4-444444-------------|
C|-2-22222--2-222222-------------|
G|-------------------------------| X 3
D|-------------------------------|
A|-------------------------------|
    P.M...    P.M....

(this part is a variation of this riff.. listen to the song to get it down)
D|-------------------------------|
A|-------------------------------|
F|-4-44444--4-444444-------------|
C|-2-22222--2-222222-------------|
G|-------------------------------| X 3
D|-------------------------------|
A|-------------------------------|
    P.M...    P.M....

D|----------------------------------------------------------------|
A|--9---10----12-13-----9----9----10-----12-13----9 --------------|
F|---9-----9--------9----9----9------9---------9------------------|
C|----9-----9---------9---9----9------9---------9-----------------|
G|----------------------------------------------------------------|
D|----------------------------------------------------------------|
A|----------------------------------------------------------------|


 Enjoy the tab!!!

| /  slide up
| \  slide down
| h  hammer-on
| p  pull-off
| ~  vibrato
| +  harmonic
| x  Mute note
===============================================================================
            
Hard to play? Try these video lessons and learn fast. | Correct




comments powered by Disqus
↑ Back to top | Tablatures and chords are parodies/interpretations of the original songs. You may use it for private study, scholarship, research or language learning purposes only