» » »

Mushroomhead, Solitaire Unraveling Bass tabs (ver.1)

Artists:  A B C D E F G H I J K L M N O P Q R S T U V W X Y Z # 

Solitaire Unraveling Bass tabs (ver.1)

Mushroomhead Tabs
 Rating:
4/5 (4 votes)
Solitaire Unraveling lessons Tabs too difficult? Try these video lessons and learn fast
                Intro:
G-------------------------------------
D-------------------------------------
A-------------------------------------
E-------------------------------------
B--3-2-1------------------------------

Verse:
G-------------------------------------
D-------------------------------------
A-------------------------------------
E------0-2----------------0-1---------
B--0-2-----0-1--------0-2-----0-1*\---

Chorus:
G-------------------------------------
D-------------------------------------
A-------------------------------------("Time Ticks Away")
E------2-----2----2-------------------(Repeat Throughout)
B--2-----2------2---------------------

Break (Part One):
G-------------------------------------
D-------------------------------------
A-------------------------------------     ("Rest")
E-------------------------------------(Repeat Throughout)
B--0-2--0-2---------------------------

Break (Part Two):
G-------------------------------------
D-------------------------------------
A-------------------------------------(Repeat Throughout)
E-------------------------------------
B--0-2-xxxx0-2-xxxxxxxx---------------

This Tab Is Unfinished!
It Will Be Finished In The Next Couple Of Days.
            
Submit corrections

comments powered by Disqus
↑ Back to top | Mushroomhead Bass for Solitaire Unraveling. Lyrics for acoustic guitar and electric guitar. Tablatures and chords are parodies/interpretations of the original songs. You may use it for private study, scholarship, research or language learning purposes only