» » »

Mushroomhead, Solitaire Unraveling Tabs (ver.1)

Artists:  A B C D E F G H I J K L M N O P Q R S T U V W X Y Z # 

Solitaire Unraveling Tabs (ver.1)

Mushroomhead Tabs
Rating:
0/5 (0 votes)
Solitaire Unraveling lessons Tabs too difficult? Try these video lessons and learn fast
                +-----------------------+
|MUSHROOMHEAD		|
|"SOLITAIRE/UNRAVELING"	|
|m3 / xx			|
+-----------------------+

This is my second tab. I made this tab bacause in MXTABS are many tabs of this song that are too wrong 
This song is the first single of the "XX". Buy the CD, it's very good, with heavy riffs and too original keys. Also appears in "M3" CD
Is one of the best CD of Nu Metal of 2001 and the band rulez so much.
Enjoy it motherf****r! ROCK 'N' ROLL
Tuning: Standard 7 String - (B-E-A-D-G-B-E) (This guys plays with the guitars down 1 step, 
but this song can be played in standard)

All guitars with Distortion

Legend: See below

Q=140
4/4

Intro:
Q=70				Q=140
  Gtr. 1, 2                    Gtr 1
			|3||3|
     W         x3 H.    SSSSSS  W          W          W          H.    Q
E||------------||-------------|----------|----------|----------|-1/----22-|
B||------------||-------------|----------|----------|----------|----------|
G||o----------o||-------------|----------|----------|----------|----------|
D||------------||-------------|----------|----------|----------|----------|
A||o----------o||-------------|----------|----------|----------|----------|
E||------------||-------6-5-4-|----------|----------|----------|----------|
B||------------||-------4-3-2-|-10\------|-4\-------|-0--------|----------|
PM                      - - -
*****************************************************************************************************************************
Verse:
  Gtr. 1
    W          x4   SSSSE SSSSE SSSS  W	      x3.5  Q.     H       E
E||------------|||------------------|-----------||-12\-----1/-----17-|
B||------------|||------------------|-----------||---------1/--------|
G||o----------o|||o-----------------|----------o||-------------------|
D||------------|||------------------|-----------||-------------------|
A||o----------o|||o-----------------|----------o||-------------------|
E||------------|||--2-2---2-2---2-2-|-----------||-------------------|
B||------------|||--0-0---0-0---0-0-|-----------||-------------------|
PM		    - -   - -   - -
 |
 |Gtr. 2
 |						   |--------6--------|
 |  W          x4   SSSSE SSSSE SSSS  W	      x3.5 Q  Q  Q  Q  Q  Q
E||------------|||------------------|-----------||-------------------|
B||------------|||------------------|-----------||-------------------|
G||o----------o|||o-----------------|----------o||-------------------|
D||------------|||------------------|-----------||-------------------|
A||o----------o|||o-----------------|----------o||-------------------|
E||------------|||--2-2---2-2---2-2-|-----------||-6--5--4--6--5--4--|
B||------------|||--0-0---0-0---0-0-|-----------||-4--3--2--4--3--2--|
PM                  - -   - -   - -
*****************************************************************************************************************************
Chorus:
  Gtrs. 1, 2
								   |---3---|
     E Q  E Q  E E   +E  E Q  E E E E  x3 E Q  E Q  E E   +E  E Q  Q  Q  Q
E||----------------|-------------------||---------------|-------------------|
B||----------------|-------------------||---------------|-------------------|
G||o---------------|------------------o||---------------|-------------------|
D||----------------|-------------------||---------------|-------------------|
A||o------2-5------|-----2-5----------o||------2-5------|-----2-5--4--3--2--|
E||--2-4--0-3--2-4-|-(4)-0-3--2-5-4-3--||-2-4--0-3------|-(4)-0-3-----------|
B||--0-2-------0-2-|-(2)------0-3-2-1--||-0-2-------0-2-|-(2)---------------|
*****************************************************************************************************************************
Verse 2:
  Gtr. 1
    W          x8   SSSSE SSSSE SSSS  W	      x3.5  Q.     H       E
E||------------|||------------------|-----------||-12\-----1/-----17-|
B||------------|||------------------|-----------||---------1/--------|
G||o----------o|||o-----------------|----------o||-------------------|
D||------------|||------------------|-----------||-------------------|
A||o----------o|||o-----------------|----------o||-------------------|
E||------------|||--2-2---2-2---2-2-|-----------||-------------------|
B||------------|||--0-0---0-0---0-0-|-----------||-------------------|
PM		    - -   - -   - -
 |
 |Gtr. 2
 |						   |--------6--------|
 |  W          x8   SSSSE SSSSE SSSS  W	      x3.5 Q  Q  Q  Q  Q  Q
E||------------|||------------------|-----------||-------------------|
B||------------|||------------------|-----------||-------------------|
G||o----------o|||o-----------------|----------o||-------------------|
D||------------|||------------------|-----------||-------------------|
A||o----------o|||o-----------------|----------o||-------------------|
E||------------|||--2-2---2-2---2-2-|-----------||-6--5--4--6--5--4--|
B||------------|||--0-0---0-0---0-0-|-----------||-4--3--2--4--3--2--|
PM                  - -   - -   - -
*****************************************************************************************************************************
Verse 3:
  Gtr. 1
     E E Q  Q  E E   W          E E Q  Q  E E   Q  E E Q  E E  x2   E E SSSSSSSSE E   SSSSSSSSSSSSSSSS  E E SSSSSSSSE E
E||----------------|----------|---------------|----x-x----x-x--|||------------------|-----------------|-----------------|
B||----------------|----------|---------------|----x-x----x-x--|||------------------|-----------------|-----------------|
G||o---------------|----------|---------------|----x-x----x-x-o|||o-----------------|-----------------|-----------------|
D||----------------|----------|---------------|----x-x----x-x--|||------------------|-----------------|-----------------|
A||o---------------|----------|---------------|----x-x----x-x-o|||o-----------------|-----------------|-----------------|
E||--2-4-------2-4-|----------|-2-4-------2-4-|----x-x----x-x--|||--2-4-2-2-2-2-2-4-|-2-2-2-2-2-2-2-2-|-2-4-2-2-2-2-2-4-|
B||--0-2-------0-2-|----------|-0-2-------0-2-|----x-x----x-x--|||--0-2-0-0-0-0-0-2-|-0-0-0-0-0-0-0-0-|-0-2-0-0-0-0-0-2-|
PM									- - - -       - - - - - - - -       - - - -
 |
 |Gtr. 2
 |   E E Q  Q  E E   W          E E Q  Q  E E   Q  E E Q  E E  x2   E E SSSSSSSSE E   SSSSSSSSSSSSSSSS  E E SSSSSSSSE E
E||----------------|----------|---------------|----x-x----x-x--|||------------------|-----------------|-----------------|
B||----------------|----------|---------------|----x-x----x-x--|||------------------|-----------------|-----------------|
G||o---------------|----------|---------------|----x-x----x-x-o|||o-----------------|-----------------|-----------------|
D||----------------|----------|---------------|----x-x----x-x--|||------------------|-----------------|-----------------|
A||o---------------|----------|---------------|----x-x----x-x-o|||o-----------------|-----------------|-----------------|
E||--2-4-------2-4-|----------|-2-4-------2-4-|----x-x----x-x--|||--2-4-2-2-2-2-2-4-|-2-2-2-2-2-2-2-2-|-2-4-2-2-2-2-2-4-|
B||--0-2-------0-2-|----------|-0-2-------0-2-|----x-x----x-x--|||--0-2-0-0-0-0-0-2-|-0-0-0-0-0-0-0-0-|-0-2-0-0-0-0-0-2-|
PM                                                    	                - - - -       - - - - - - - -       - - - - 

  Gtr. 1
                   |1                  |2        |----3----|
   E E SSSSSSSSE E | SSSSSSSSSSSSSSSS  | SSSSSSSSQ  Q  Q
E|-----------------|------------------||------------------|
B|-----------------|------------------||------------------|
G|-----------------|-----------------o||------------------|
D|-----------------|------------------||------------------|
A|-----------------|-----------------o||---------4--3--2--|
E|-2-4-2-2-2-2-2-4-|-2-2-2-2-2-2-2-2--||-2-2-2-2----------|
B|-0-2-0-0-0-0-0-2-|-0-0-0-0-0-0-0-0--||-0-0-0-0----------|
PM     - - - -       - - - - - - - -     - - - -
 |
 |Gtr. 2
 |                 |1                  |2        |----3----|
 | E E SSSSSSSSE E | SSSSSSSSSSSSSSSS  | SSSSSSSSQ  Q  Q
E|-----------------|------------------||------------------|
B|-----------------|------------------||------------------|
G|-----------------|-----------------o||------------------|
D|-----------------|------------------||------------------|
A|-----------------|-----------------o||---------4--3--2--|
E|-2-4-2-2-2-2-2-4-|-2-2-2-2-2-2-2-2--||-2-2-2-2----------|
B|-0-2-0-0-0-0-0-2-|-0-0-0-0-0-0-0-0--||-0-0-0-0----------|
PM     - - - -       - - - - - - - -     - - - -
*****************************************************************************************************************************
Verse 4:

  Gtr. 1
     E Q  E Q  E E   +H.    SSSS  E Q  E Q  E E   +H.    SSSS      E Q   E Q   E E   +H.	   SSSS  E Q   E Q   E E
E||----------------|------------|---------------|-------------|||------------------|-------------------|-----------------|
B||----------------|------------|---------------|-------------|||------------------|-------------------|-----------------|
G||o---------------|------------|---------------|------------o|||o-----------------|-------------------|-----------------|
D||--2-2--2-2--3-3-|-(3)----3-3-|-3-3--3-3--2-2-|-(2)----2-2--|||--2-2---2-2---3-3-|-(3)-----------3-3-|-3-3---3-3---2-2-|
A||o-0-0--0-0--1-1-|-(1)----1-1-|-1-1--1-1--0-0-|-(0)----0-0-o|||o-0-0---0-0---1-1-|-(1)-----------1-1-|-1-1---1-1---0-0-|
E||----------------|------------|---------------|-------------|||------------------|-------------------|-----------------|
B||----------------|------------|---------------|-------------|||------------------|-------------------|-----------------|
 |
 |Gtr. 2
 |   E Q  E Q  E E   +H.    SSSS  E Q  E Q  E E   +H.    SSSS      Q   Q   Q   Q     +Q    Q   Q   Q     Q   Q   Q   Q
E||----------------|------------|---------------|-------------|||--2-----------3---|-(3)-----------5---|-6-----------2---|
B||----------------|------------|---------------|-------------|||------3-----------|-------3-----------|-----3-----------|
G||o---------------|------------|---------------|------------o|||o---------2-------|-----------2-------|---------2-------|
D||--2-2--2-2--3-3-|-(3)----3-3-|-3-3--3-3--2-2-|-(2)----2-2--|||------------------|-------------------|-----------------|
A||o-0-0--0-0--1-1-|-(1)----1-1-|-1-1--1-1--0-0-|-(0)----0-0-o|||o-----------------|-------------------|-----------------|
E||----------------|------------|---------------|-------------|||------------------|-------------------|-----------------|
B||----------------|------------|---------------|-------------|||------------------|-------------------|-----------------|

  Gtr. 1
   +H.           SSSS
E|--------------------||
B|--------------------||
G|-------------------o||
D|-(2)-----------2-2--||
A|-(0)-----------0-0-o||
E|--------------------||
B|--------------------||
 |
 |Gtr. 2
 | +Q    Q   Q   Q
E|-(2)----------------||
B|-------3-------3----||
G|-----------2-------o||
D|--------------------||
A|-------------------o||
E|--------------------||
B|--------------------||
*****************************************************************************************************************************
Verse 5:

  Gtr. 1
     E E SSSSSSSSE E   SSSSSSSSSSSSSSSS  E E SSSSSSSSE E   SSSSSSSSSSSSSSSS
E||------------------|-----------------|-----------------|------------------||
B||------------------|-----------------|-----------------|------------------||
G||o-----------------|-----------------|-----------------|-----------------o||
D||--3-2-2-2-2-2-1-1-|-3-3-3-3-3-3-3-3-|-3-3-3-3-3-3-2-2-|-2-2-2-2-2-2-2-2--||
A||o-1-0-0-0-0-0-1-1-|-1-1-1-1-1-1-1-1-|-1-1-1-1-1-1-0-0-|-0-0-0-0-0-0-0-0-o||
E||------------------|-----------------|-----------------|------------------||
B||------------------|-----------------|-----------------|------------------||
PM       - - - -       - - - - - - - -       - - - -       - - - - - - - -
 |
 |Gtr. 2
 |   Q   Q   Q   Q     +Q  Q   Q   Q     Q   Q   Q   Q     +Q  Q   Q   Q
E||--2-----------3---|-(3)-----3---5---|-6-----------2---|-(2)--------------||
B||------------------|-----------------|-----------------|------------------||
G||o-----------------|-----------------|-----------------|-----------------o||
D||------------------|-----------------|-----------------|------------------||
A||o-----------------|-----------------|-----------------|-----------------o||
E||------------------|-----------------|-----------------|------------------||
B||------------------|-----------------|-----------------|------------------||
*****************************************************************************************************************************
Interlude

  Gtr.2				 |1				 |2
     Q  Q  Q  Q    +Q   Q  Q  Q  | Q  Q  Q  Q    +Q   Q  Q  Q    | Q  Q  Q  Q    +H      Q.    E
E||--2--------3--|-(3)--------5--|-6--------2--|-(2)--------3---||-6-----------|------------------|
B||-----3--------|------3--------|----3--------|------3---------||----------7--|-(7)---- 7 --\ 0 -|
G||o-------2-----|---------2-----|-------2-----|---------2-----o||----7-----7--|-(7)---- 7 --\ 0 -|
D||--------------|---------------|-------------|----------------||-------7--7--|-(7)---- 7 --\ 0 -|
A||o-------------|---------------|-------------|---------------o||-------------|------------------|
E||--------------|---------------|-------------|----------------||-------------|------------------|
B||--------------|---------------|-------------|----------------||-------------|------------------|
									    ^
*****************************************************************************************************************************
Outro

  Gtr.2				 |1				 |2
     Q  Q  Q  Q    +Q   Q  Q  Q  | Q  Q  Q  Q    +Q   Q  Q  Q    | Q  Q  Q  Q    +W
E||--2--------3--|-(3)--------5--|-6--------2--|-(2)--------3---||-6-----------|----------|
B||-----3--------|------3--------|----3--------|------3---------||----------7--|-(7)------|
G||o-------2-----|---------2-----|-------2-----|---------2-----o||----7-----7--|-(7)------|
D||--------------|---------------|-------------|----------------||-------7--7--|-(7)------|
A||o-------------|---------------|-------------|---------------o||-------------|----------|
E||--------------|---------------|-------------|----------------||-------------|----------|
B||--------------|---------------|-------------|----------------||-------------|----------|
									    ^

Structure:
Intro
Verse 1
Chorus
Verse 2
Chorus
Chorus
Verse 3
Verse 4
Verse 5
Interlude
Verse 3
Verse 4
Verse 5
Outro


Duration Legend
---------------
W - whole; H - half; Q - quarter; E - 8th; S - 16th; T - 32nd; X - 64th; a - acciaccatura
+ - note tied to previous; . - note dotted; .. - note double dotted
Uncapitalized letters represent notes that are staccato (1/2 duration)
Irregular groupings are notated above the duration line
Duration letters will always appear directly above the note/fret number it represents the
duration for.  Duration letters with no fret number below them represent rests.  Multi-
bar rests are notated in the form Wxn, where n is the number of bars to rest for.  Low
melody durations appear below the staff

Tablature Legend
----------------
 /\  - slide into or out of (from/to "nowhere")
- n -- ghost note
 PM  - palm muting
 x   - on rhythm slash represents muted slash

Misc Legend
-----------
 |  - bar
||o - repeat start
o|| - repeat end

      /\       /\
     |  |     |  |
     |  |__ __|  |
 __  |  |  |  |  |
|  \ |  |  |  |  |
 \  \|  |  |  |  |
  \  		 |
   \	\/ \/	 |
    \	/\ /\	/
     \  |   |  /
      \  |||  / 
       |     |
       |     |

Lyrics
------

JMann							Jefferey Nothing
-----							----------------
Locked away in a cage
My rage has got the best of me 
Time finds a way each day of leaving less of me 
Behind I find this fight 
Must be won inside the mind 
So uptight and confined often blinded by the light
							Taking it's toll on my system 
							Like some played out existence

Time ticks away these last few moments 
Is there anything we've left unsaid? 
I'm on a quest for atonement 
I've got to find piece of mind 
And a place to rest

							Biding my time 
							Until I'm strong enough 
							To fight back 

Locked away in a cage					Hope, 
My rage has got the best of me 
Time finds a way each day of leaving less of me 	I hope against hope 
Behind I find this fight 				For some resistance 
Must be won inside the mind 				Been taking it out 
So uptight and confined often blinded by the light	On my system 

Time ticks away these last few moments 
Is there anything we've left unsaid? 
I'm on a quest for atonement 
I've got to find piece of mind 
And a place to rest

Time ticks away these last few moments 
Is there anything we've left unsaid? 
I'm on a quest for atonement 
I've got to find piece of mind 
And a place to rest

Rest!, rest!
Rest!, rest!
There's a calm before the storm 
And the western front is quiet 
I've got Rembrandt as my right hand 
And Solo as my pilot 

There's a calm before the storm 
And the western front is quiet 
I've got Rembrandt as my right hand 
And Solo as my pilot 

							Condemned man
Condemned 
							Convicted Man 
Convicted 
							Could not save my life 
							Cutting strand by strand 

							Condemned man
Condemned 
							Convicted Man 
Convicted 
							Could not save my life 
							Cutting strand by strand 

							Passing it off like some kind of king 
							You don't know peace 'til you've had suffering 
I've suffered						all of your so called resolve 
							But you haven't tasted pain 
							Have you ever been inside of the new masterpiece?
Rest
							Have you ever been inside?
Rembrandt as my right hand and Solo as my pilot
							Have you ever been inside of the new masterpiece

							Condemned man
Condemned 
							Convicted Man 
Convicted 
							Could not save my life 
							Cutting strand by strand 

							Condemned man
Condemned 
							Convicted Man 
Convicted 
							Could not save my life 
							Cutting strand by strand 
Strand by strand by strand by strand 
Rest! rest! rest! rest! 
Rest! rest! rest! rest! 
							Condemned


Si tú quieres ésta u otra tab mía en español (sin la traducción de la letra), mándame un e-mail pidiéndomela
MUSHROOMHEAD RULEZ THA UNIVERZ
            
Submit corrections

comments powered by Disqus
↑ Back to top | Mushroomhead Tabs for Solitaire Unraveling. Lyrics for acoustic guitar and electric guitar. Tablatures and chords are parodies/interpretations of the original songs. You may use it for private study, scholarship, research or language learning purposes only