» » »

Mushroomhead, Solitaire Unraveling Tabs (ver.3)

Artists:  A B C D E F G H I J K L M N O P Q R S T U V W X Y Z # 

Solitaire Unraveling Tabs (ver.3)

Mushroomhead Tabs
 Rating:
4/5 (4 votes)
Solitaire Unraveling lessons Tabs too difficult? Try these video lessons and learn fast
                MUSHROOMHEAD-SOLITAIRE/UNRAVELING
ALL GTRS. ARE IN DROPPED D TUNING; ONE WHOLE STEP DOWN (LOW TO HIGH:C,G,C,F,A,D)
  
INTRO           GTR. 1(SLIGHT DISTORTION)
(KEYBOARD INTRO)RHYTHM FIG.1
|---------------|-------------------|------------------|
|------~2~------|-------------------|------------------|
|-|===========|-|-------------------|--------===-------|
|-|===========|-|-6---6---6---6//(2)|------------------|
|---------------|-6---6---6---6//(2)|------------------|
|---------------|-6---6---6---6/-(2)|------------------|

GTR. 2(SLIGHT DIST.)
RHYTHM FIG.1A
|---------------|-------------------|------------------|
|---------------|-------------------|----------2/17----|
|---------------|-------------------|------------------|
|---------------|-------------------|------------------|
|---------------|-------------------|------------------|
|---------------|-------------------|------------------|

VERSE     
RHYTHM FIG.2   (repeat prev. beat)      (repeat prev. measure)
|-------------------------------|-------------------------------|
|-------------------------------|-------------------------------|
|-------------------------------|--------------o/---------------|
|-2-2---2-3---2-2---------------|--------------/o---------------|
|-2-2---2-3---2-2---------------|-------------------------------|
|-2-2---2-3---2-2---------------|-------------------------------|

CHORUS
RHYTHM FIG.3
|-----------------|-----------------|-------------|-------------|
|-----------------|-----------------|-------------|-------------|
|-----------------|-4-4-----5-------|------------o/-------------|
|-6-------9-------|-4-4-----5-------|------------/o-------------|
|-6-------9-------|-2-2-----3-------|-------------|-------------|
|-6-------9-------|-----------------|-------------|-------------|

VERSE 2
RHYTHM FILL 1
|------------------------------|--------------------------------|
|------------------------------|--------------------------------|
|------------------------------|--------------------------------|
|------------------------------|--------------------------------|
|------------------------------|--------------------------------|
|------------------------------|--------------------------------|

RHYTHM FIG. 2

CHORUS: RHYTHM FIG.3

INTERLUDE
RHYTHM FIG.4
|------------------------------|--------------------------------|
|-------------------/----------|--------------------------------|
|------------------------------|--------------o/----------------|
|-2-/4-----2-/4----------------|--------------/o----------------|
|-2-/4-----2-/4----------------|--------------------------------|
|-2-/4-----2-/4----------------|--------------------------------|

BRIDGE
RHYTHM FIG.5
|------------------------------|--------------------------------|
|------------------------------|--------------------------------|
|------------------------------|--------------------------------|
|-2-/4-----2-/4----------------|-4-/6-----4-/6------------------|
|-2-/4-----2-/4----------------|-4-/6-----4-/6------------------|
|-2-/4-----2-/4----------------|-4-/6-----4-/6------------------|

GTR. 1 PLAYS RHYTHM FIG.5

GTR, 2 PLAYS:
RHYTHM FIG.5A
|------------------------------|--------------------------------|
|------------------------------|--------------------------------|
|------------------------------|--------------------------------|
|------------------------------|--------------------------------|
|-4-4-4-4-4-4-4-4-4-4-4-4-4-4--|-6-6-6-6-6-6-6-6-6-6-6-6-6-6-6--|
|-4-4-4-4-4-4-4-4-4-4-4-4-4-4--|-6-6-6-6-6-6-6-6-6-6-6-6-6-6-6--|

FINAL CHORUS:
GTR. 1 PLAYS RHYTHM FIG. 3
GTR. 2 PLAYS RHYTHM FIG. 5A
            
Submit corrections

comments powered by Disqus
↑ Back to top | Mushroomhead Tabs for Solitaire Unraveling. Lyrics for acoustic guitar and electric guitar. Tablatures and chords are parodies/interpretations of the original songs. You may use it for private study, scholarship, research or language learning purposes only