» » »

Solitaire Unraveling Bass tabs (ver.2)

Artists:  A B C D E F G H I J K L M N O P Q R S T U V W X Y Z # 

Solitaire Unraveling Bass tabs (ver.2)

Mushroomhead
Rating:
0/5 (0 votes)

Hard to play? Try these video lessons and learn fast.
                Mushroomhead
Solitaire Unraveling


Intro
|------------|-1/17--|
|------------|-------|
|------------|-------|
|-5-5-5-5-0--|-------|

Verse
|----------|
|----------|
|----------|
|-xx-xx-xx-|

Pre-Verse
|----------|
|-12/0/12--|
|----------|
|----------| 

Chorus
|----------------------| 
|-------5-------5------| 
|---4-------4-------4--| 
|-4---5---4---5---4----|

Bridge1
|---------|
|---------| 
|---------| 
|-22--66--|

Bridge2
|---------|
|---------| 
|-----3p--| 
|-0---1p--|
            
Hard to play? Try these video lessons and learn fast. | Correct




comments powered by Disqus
↑ Back to top | Tablatures and chords are parodies/interpretations of the original songs. You may use it for private study, scholarship, research or language learning purposes only