>
 >
Unintended 2

Unintended 2 Guitar Tabs

Muse - Unintended 2 chords, tabs, tablatures, lyrics

Guitar lessons | Add/correct | Request | Top 50 tabs Artists:  A B C D E F G H I J K L M N O P Q R S T U V W X Y Z 0-9

Unintended 2 Guitar Tabs – Muse

CD, Sheet music, Poster

Do you like Unintended 2? Share with your friends now
ChordsTabsTabs v2Tabs v3
-----0--------------------|--------0-------------------|---------2-------|----
-----0--0---------2-1-0---|--------0-----------2-1-0---|-----0-----0-----|----
-------1--------1-------2-|-0h1--------------1-------2-|-------2-----2--2|----
---2----------2-----------|-----2----------2-----------|---1-----------1-|----
----------0h2-------------|------------0h2-------------|-2---------------|-2--
-0------------------------|-0----0---------------------|-----------------|----
 Intro:                                                                       

-------2-------|---------0-------|---------0-------|---------2-------|--------
---0-----0-----|-----0-----0-----|-----1-----1-----|-----3-----3-----|-----3--
-----2-----2---|-------1-----1---|-------2-----2---|---2---2-----2---|--------
-1-----------1-|---2-----------2-|---2-----------2-|-0---------------|---0----
---------------|-----------------|-0---------------|---------------0-|--------
---------------|-0---------------|-----------------|-----------------|-3------
                 Verse 1:                                                     

---3-------|---------0-------|---------2-------|---------0-------|---------0--
-----3-----|-----1-----1-----|-----0-----0-----|-----0-----0-----|-----0------
-0-----0---|-------0-----0---|-------2-----2---|-------1-----1---|-------1----
---------0-|---2-----------2-|---1-----------1-|---2-----------2-|---2--------
-----------|-3---------------|-2---------------|-----------------|------------
-----------|-----------------|-----------------|-0---------------|-0----------
                                                                              

-------|---------0-------|---------0-------|---------2-------|---------3------
-0-----|-----0-----0-----|-----1-----1-----|-----3-----3-----|-----3-----3----
---1---|-------1-----1---|-------2-----2---|---2---2-----2---|-------0-----0--
-----2-|---2-----------2-|---2-----------2-|-0---------------|---0------------
-------|-----------------|-0---------------|---------------0-|----------------
-------|-0---------------|-----------------|-----------------|-3--------------
         Verse 2:                                                             

---|---------0-------|---------2-------|---------0-------|---------0-------|--
---|-----1-----1-----|-----0-----0-----|-----0-----0-----|-----0-----0-----|--
---|-------0-----0---|-------2-----2---|-------1-----1---|-------1-----1---|--
-0-|---2-----------2-|---1-----------1-|---2-----------2-|---2-----------2-|--
---|-3---------------|-2---------------|-----------------|-----------------|--
---|-----------------|-----------------|-0---------------|-0---------------|--
                                                                              

---------0-------|---------0-------|---------2-------|---------3-------|------
-----0-----0-----|-----1-----1-----|-----3-----3-----|-----3-----3-----|------
-------1-----1---|-------2-----2---|---2---2-----2---|-------0-----0---|------
---2-----------2-|---2-----------2-|-0---------------|---0-----------0-|---2--
-----------------|-0---------------|---------------0-|-----------------|-3----
-0---------------|-----------------|-----------------|-3---------------|------
 Chorus 1:                                                                    

-----0-------|---------2-------|---------0-------|---------0-------|----------
-1-----1-----|-----0-----0-----|-----0-----0-----|-----0-----0-----|-----0----
---0-----0---|-------2-----2---|-------1-----1---|-------1-----1---|-------1--
-----------2-|---1-----------1-|---2-----------2-|---2-----------2-|---2------
-------------|-2---------------|-----------------|-----------------|----------
-------------|-----------------|-0---------------|-0---------------|-0--------
                                                                     Verse 3: 

-0-------|---------0-------|---------2-------|---------3-------|---------0----
---0-----|-----1-----1-----|-----3-----3-----|-----3-----3-----|-----1-----1--
-----1---|-------2-----2---|---2---2-----2---|-------0-----0---|-------0------
-------2-|---2-----------2-|-0---------------|---0-----------0-|---2----------
---------|-0---------------|---------------0-|-----------------|-3------------
---------|-----------------|-----------------|-3---------------|--------------
                                                                              

-----|---------2-------|---------0-------|---------0-------|---------0--------
-----|-----0-----0-----|-----0-----0-----|-----0-----0-----|-----0-----0------
-0---|-------2-----2---|-------1-----1---|-------1-----1---|-------1-----1----
---2-|---1-----------1-|---2-----------2-|---2-----------2-|---2-----------2--
-----|-2---------------|-----------------|-----------------|------------------
-----|-----------------|-0---------------|-0---------------|-0----------------
                                                             Verse 4:         

-|---------0-------|---------2-------|---------3-------|---------0-------|----
-|-----1-----1-----|-----3-----3-----|-----3-----3-----|-----1-----1-----|----
-|-------2-----2---|---2---2-----2---|-------0-----0---|-------0-----0---|----
-|---2-----------2-|-0---------------|---0-----------0-|---2-----------2-|----
-|-0---------------|---------------0-|-----------------|-3---------------|-2--
-|-----------------|-----------------|-3---------------|-----------------|----
                                                                              

-------2-------|---------0-------|-------------2---|---------0-------|--------
---0-----0-----|-----0-----0-----|-----0--------0--|-----0-----0-----|-----1--
-----2-----2---|-------1-----1---|-------0---2---2-|-------1-----1---|--------
-1-----------1-|---2-----------2-|---2-------------|---2-----------2-|---2----
---------------|-----------------|-----------------|-----------------|-0------
---------------|-0---------------|-3-------2-------|-0---------------|--------
                                                     Chorus 2:                

---0-------|---------2-------|---------3-------|---------0-------|---------2--
-----1-----|-----3-----3-----|-----3-----3-----|-----1-----1-----|-----0------
-2-----2---|---2---2-----2---|-------0-----0---|-------0-----0---|-------2----
---------2-|-0---------------|---0-----------0-|---2-----------2-|---1--------
-----------|---------------0-|-----------------|-3---------------|-2----------
-----------|-----------------|-3---------------|-----------------|------------
                                                                              

-------|---------0-------|---------0-------|---------0-------|---------0------
-0-----|-----0-----0-----|-----0-----0-----|-----0-----0-----|-----1-----1----
---2---|-------1-----1---|-------1-----1---|-------1-----1---|-------2-----2--
-----1-|---2-----------2-|---2-----------2-|---2-----------2-|---2------------
-------|-----------------|-----------------|-----------------|-0--------------
-------|-0---------------|-0---------------|-0---------------|----------------
                                                                              

---|---------2-------|---------3-------|---------0-------|---------2-------|--
---|-----3-----3-----|-----3-----3-----|-----1-----1-----|-----0-----0-----|--
---|---2---2-----2---|-------0-----0---|-------0-----0---|-------2-----2---|--
-2-|-0---------------|---0-----------0-|---2-----------2-|---1-----------1-|--
---|---------------0-|-----------------|-3---------------|-2---------------|--
---|-----------------|-3---------------|-----------------|-----------------|--
                                                                              

---------0-------|---------0-------|---------0-------|---------0-------|------
-----0-----0-----|-----0-----0-----|-----1-----1-----|-----1-----1-----|------
-------1-----1---|-------1-----1---|-------2-----2---|-------2-----2---|------
---2-----------2-|---2-----------2-|---2-----------2-|---2-----------2-|---2--
-----------------|-----------------|-0---------------|-----------------|------
-0---------------|-0---------------|-----------------|-3---------------|-2----
                                     Outro:                                   

-----0-------|---------0-------|---------0-------|---------0-------|----------
-1-----1-----|-----0-----0-----|-----0-----0-----|-----0-----0-----|----------
---2-----2---|-------2-----2---|-------2-----2---|-------2-----2---|-----1----
-----------2-|---2-----------2-|---2-----------2-|---2-----------2-|---2---2--
-------------|-----------------|-----------------|-----------------|----------
-------------|-1---------------|-0---------------|-0---------------|-0--------
                                                                              

-0-------|--------------------------------------------------------------------
---0-----|--------------------------------------------------------------------
-----1---|--------------------------------------------------------------------
-------2-|--------------------------------------------------------------------
---------|--------------------------------------------------------------------
---------|-0------------------------------------------------------------------





Comments


Popular Muse tabs & chords
Futurism 2 Bass Tabs
Hyper Music Bass Tabs
Dark Shines 1 Chords
Falling Down Chords
Map Of The Problematique Chords
Muscle Museum Drum Tabs
Feeling Good 1 Tabs
Fillip 1 Tabs
Over Due Tabs
Showbiz Tabs


Song lyrics



↑ Back to top | Tablatures and chords are parodies/interpretations of the original songs. You may use it for private study, scholarship, research or language learning purposes only
© 2014 AZChords.com Contact us | Privacy policy | DMCA | Add/correct tabs | Request tabs | Top 50 tabs