» » »

Muse, Unintended Tabs (ver.2)

Artists:  A B C D E F G H I J K L M N O P Q R S T U V W X Y Z # 

Unintended Tabs (ver.2)

Muse Tabs
 Rating:
4/5 (4 votes)
Unintended lessons Tabs too difficult? Try these video lessons and learn fast
1
                Intro

E -------0---------------------------------0----------------------------2------------
B -------0--------------2-1-0----------0---0----------2-1-0---------0-----0----------
G -------1---1-------1--------2----0h1---1----------1-------2---------2-----2--------
D -----2---2-------2------------------------------2---------------1-----------1------
A -------------0h2----------------------------0h2---------------2--------------------
E ---0-----------------------------0-------------------------------------------------

E ----------2---------
B ------0-----0-------
G --------2-----2-----
D ----1-----------1---
A --2-----------------
E --------------------

Verse and Chorus

         E                 Am                 D                 G7
E ---------0-------|---------0-------|---------2-------|---------3---------------
B -----0-----0-----|-----1-----1-----|-----3-----3-----|-----3-----3-------------
G -------1-----1---|-------2-----2---|---2---2-----2---|-------0-----0-----------
D ---2-----------2-|---2-----------2-|-0-------------0-|---0-----------0---------
A -----------------|-0---------------|-----------------|-------------------------
E -0---------------|-----------------|-----------------|-3-----------------------

         C                 B7                E                 E
E ---------0-------|---------2-------|---------0-------|---------0---------------
B -----1-----1-----|-----0-----0-----|-----0-----0-----|-----0-----0-------------
G -------0-----0---|-------2-----2---|-------1-----1---|-------1-----1-----------
D ---2-----------2-|---1-----------1-|---2-----------2-|---2-----------2---------
A -3---------------|-2---------------|-----------------|-------------------------
E -----------------|-----------------|-0---------------|-0-----------------------

         E                 Am                 D                 G7
E ---------0-------|---------0-------|---------2-------|---------3---------------
B -----0-----0-----|-----1-----1-----|-----3-----3-----|-----3-----3-------------
G -------1-----1---|-------2-----2---|---2---2-----2---|-------0-----0-----------
D ---2-----------2-|---2-----------2-|-0-------------0-|---0-----------0---------
A -----------------|-0---------------|-----------------|-------------------------
E -0---------------|-----------------|-----------------|-3-----------------------

         C                 B7                E                 E
E ---------0-------|---------2-------|---------0-------|---------0---------------
B -----1-----1-----|-----0-----0-----|-----0-----0-----|-----0-----0-------------
G -------0-----0---|-------2-----2---|-------1-----1---|-------1-----1-----------
D ---2-----------2-|---1-----------1-|---2-----------2-|---2-----------2---------
A -3---------------|-2---------------|-----------------|-------------------------
E -----------------|-----------------|-0---------------|-0-----------------------
            
Submit corrections

comments powered by Disqus
↑ Back to top | Muse Tabs for Unintended. Lyrics for acoustic guitar and electric guitar. 1 Tablatures and chords are parodies/interpretations of the original songs. You may use it for private study, scholarship, research or language learning purposes only