» » »

Muse, The Small Print Tabs (ver.3)

Artists:  A B C D E F G H I J K L M N O P Q R S T U V W X Y Z # 

The Small Print Tabs (ver.3)

Muse Tabs
 Rating:
4/5 (4 votes)
The Small Print lessons Tabs too difficult? Try these video lessons and learn fast
1
                Muse	
The Smallprint or TSP


 Main Riff.

e-------------------------| x 12 (according to the live version) 
B----------3--------------|  
G-------------------------|  
D--3-4-3-4---4-3-4--------| 
A-------------------------| 
D-------------------------| 

 Verse (listen to the song for the right rythm)

e--------------------------------------------------------------------------------------|
B--------------------------------------------------------------------------------------|
G-4-4-4-4--6-6--7-7-7-7--11-11--12-12-12-12-12-12-12-12--11-11-11-11-9-9-9-9--5-5-5-5--| 
D-x-x-x-x--x-x--x-x-x-x--x--x---x--x--x--x--x--x--x--x---x--x--x--x--x-x-x-x--x-x-x-x--|
A-2-2-2-2--4-4--5-5-5-5--9--9---10-10-10-10-10-10-10-10--9--9--9--9--7-7-7-7--3-3-3-3--| 
D--------------------------------------------------------------------------------------|

 Chorus

e-------------------------------------------|
B-------------------------------------------|
G-4-4-4-4-----------------------------------|  x2
D-4-4-4-4-4-4-4--4-0-0-0--0-4-4-4--4-4-4--4-|
A-2-2-2-2-4-4-4--4-0-0-0--0-4-4-4--4-4-4--4-| 
D---------4-4-4--4-0-0-0--0-4-4-4--4-4-4--4-|

e---------------------------------------------------------------------|
B---------------------------------------------------------------------|
G-4-4-4--4-6-6-6--6---------------------------------------------------|
D-4-4-4--4-6-6-6--6-4-4-4--4-0-0-0--0-4-4-4-4-4-4-4-4-4-4-4-4-4-4-4-4-|
A-2-2-2--2-4-4-4--4-4-4-4--4-0-0-0--0-4-4-4-4-4-4-4-4-4-4-4-4-4-4-4-4-|
D-------------------4-4-4--4-0-0-0--0-4-4-4-4-4-4-4-4-4-4-4-4-4-4-4-4-|

e---------------------------------------------------------------------|
B---------------------------------------------------------------------|
G-4-4-4--4----------6-6-6--6------------------------------------------|
D-4-4-4--4-0-0-0--0-6-6-6--6-0-0-0--0-4-4-4-4-4-4-4-4-4-4-4-4-4-4-4-4-|
A-2-2-2--2-0-0-0--0-4-4-4--4-0-0-0--0-4-4-4-4-4-4-4-4-4-4-4-4-4-4-4-4-|
D----------0-0-0--0----------0-0-0--0-4-4-4-4-4-4-4-4-4-4-4-4-4-4-4-4-|


Main Riff x12 (how many times you play the riff just in case you get confused)
verse 1 x2
Riff x12
chorus
verse 1 x3
Riff x2
chorus
Solo
intro x4



I shall work out the solo soon but its difficult to hear it with the live version if any1 has a cleaner copy 
then e-mail me pls.Thanx
            
Submit corrections

comments powered by Disqus
↑ Back to top | Muse Tabs for The Small Print. Lyrics for acoustic guitar and electric guitar. 1 Tablatures and chords are parodies/interpretations of the original songs. You may use it for private study, scholarship, research or language learning purposes only