» » »

Muse, The Small Print Bass tabs (ver.1)

Artists:  A B C D E F G H I J K L M N O P Q R S T U V W X Y Z # 

The Small Print Bass tabs (ver.1)

Muse Tabs
Rating:
0/5 (0 votes)
The Small Print lessons Tabs too difficult? Try these video lessons and learn fast
                "(1)
Intro
G|-4-4-4-4-4-4-4-4-------------------------------------------------|
D|-----------------4-4-4-4-4-4-4-4-0-0-0-0-0-0-0-0-/4-4-4-4-4-4-4-4|
A|-----------------------------------------------------------------| X2
E|-----------------------------------------------------------------|

Verse
G|-----------------------------------------------------------------0-0-0-0-0-0-0-0-0-0-0-0|
D|---------------------------------0-0-0-0-0-0-0-0-0-0-0-0-4-4-4-4------------------------|
A|-2-2-2-2-2-2-2-2-2-2-2-2-4-4-4-4--------------------------------------------------------| cont...
E|----------------------------------------------------------------------------------------|

                            1st end                2nd end
G|--------------------|--------------------|-------------------|
D|-4-4-4-4-2-2-2-2-2-2|--------------------|-------------------|
A|--------------------|-----------------0--|-------------------|
E|--------------------|-0-0-2-2-2-2-2-2---2|-0-0-2-2-2-2-2--2--|
Back to intro, but play it only once...

Chorus
G|----------------------------------------------------------------|
D|----------------------------------------------------------------|
A|-2-------2-2-2-2-----------------5-5-5-5-5-5-5-5----------------| X2
E|-----------------2-2-2-2-2-2-2-2-----------------2-2-2-2-2-2-2-2|

G|------------------------------------------------------------------------------------------------|
D|-2-2-2-2-2-2-2-2-4-4-4-4-4-4-4-4----------------------------------------------------------------|
A|---------------------------------2-------2-2-2-2-5-5-5-5-5-5-5-5--------------------------------|
E|-----------------------------------------------------------------2-2-2-2-2-2-2-2-2-2-2-2-2-2-2-2|

G|------------------------------------------------------------------------------------|
D|-2-2-2-2-2-2-2-2--------------------------------------------------------------------|
A|-----------------0-0-0-0-0-0-0-0-5-5-5-5-5-5-5-5------------------------------------|
E|-------------------------------------------------2-2-2-2-2-2-2-2-3-3-3-3-3-3-3-3-...|

Play the verse with the 1st end twice, and then with the 2nd end, continue to chorus...

Interlude
G|----------------------------------------------|
D|-----11---------------------------------------|
A|-----------------5-----7----------------------|
E|-/7--7---0----0-----0-----2----2----2----2----|
I’m not too sure about this part, and I think the bassist use effect in this part, but I can’t figure it out at this time...

Back to the intro part (plays it twice)...and then end it with:

G|----------------------------------------------------------------|
D|----------------------------------------------------------------|
A|-2-2-2-2-2-2-2-2-----------------5-5-5-5-5-5-5-5----------------| X2
E|-----------------2-2-2-2-2-2-2-2-----------------2-2-2-2-2-2-2-2|

G|------------------------------------------------------------------------------------------------|
D|-2-2-2-2-2-2-2-2-4-4-4-4-4-4-4-4----------------------------------------------------------------|
A|---------------------------------2-2-2-2-2-2-2-2-5-5-5-5-5-5-5-5--------------------------------|
E|-----------------------------------------------------------------2-2-2-2-2-2-2-2-2-2-2-2-2-2-2-2|

G|------------------------------------------------------------------------------------|
D|-2-2-2-2-2-2-2-2--------------------------------------------------------------------|
A|-----------------0-0-0-0-0-0-0-0-5-5-5-5-5-5-5-5------------------------------------|
E|-------------------------------------------------2-2-2-2-2-2-2-2-3-3-3-3-3-3-3-3-...|

G|------|
D|------|
A|------|
E|-7-\--|

Actually the ‘5’ on the A string is play on the ‘0’ E that have been turned down to ‘D’ string...
"            
Submit corrections

comments powered by Disqus
↑ Back to top | Muse Bass for The Small Print. Lyrics for acoustic guitar and electric guitar. Tablatures and chords are parodies/interpretations of the original songs. You may use it for private study, scholarship, research or language learning purposes only