» » »

Muse, Sing For Absolution Tabs (ver.3)

Artists:  A B C D E F G H I J K L M N O P Q R S T U V W X Y Z # 

Sing For Absolution Tabs (ver.3)

Muse Tabs
 Rating:
4/5 (4 votes)
Sing For Absolution lessons Tabs too difficult? Try these video lessons and learn fast
1
                Artist  Muse
Album absolution 

This song is in standard tuning

verse: this has delay on it but you can just play each note
twice if you don't have delay
|---------------------------------------------|
|--6-----8--6-----8--6-----8--6-----8--6---8--|
|---------------------------------------------|
|----7-8------7-8------7-8------7-8-----7-8---|
|---------------------------------------------|
|---------------------------------------------|

|---------------------------------------------|
|--5-----6--5-----6--5-----6--5-----6---------|
|------7--------7--------6--------6-----------|
|----6--------6--------5--------5-------------|
|---------------------------------------------|
|---------------------------------------------|

chorus:
C
|------------------0-----------------------0---------------3--------|
|----------1---------1-----1-------------1---1-----------1---1---1--|
|------0-----0---0-----0-----0---0-----0-------0-------0-------0----|
|----2---2-----2---------2-----2-----2-----------2---2--------------|
|--3-------------------------------3---------------3----------------|
|-------------------------------------------------------------------|

Gm                                 Gm7                         Gm      
|----------3-------3-------3-------1-------1-------1-------1-------3------|
|------3-----3---3---3---3---3---3---3---3---3---3---3---3---3---3---3----|
|----3---3-----3-------3-------3-------3-------3-------3-------3-------3--|
|-------------------------------------------------------------------------|
|-------------------------------------------------------------------------|
|--3----------------------------------------------------------------------|

C*                   C                                 Csus*   C*
|----3---------------0-------0----------------0--------1-------3-----------|
|--1---1-----1---------1-------1---1--------1---1--------1---1---1---1-----|
|--------0-----0---------0-------0--------0-------0--------0-------0-------|
|----------2-----2---------2------------2-----------2----------------------|
|------------------3------------------3------------------------------------|
|--------------------------------------------------------------------------|

Gm                                 Gm9 
|----------3-------3-------3-------5------5-------5-------5-------5------|
|------3-----3---3---3---3---3---3---3---3--3---3---3---3---3---3---3----|
|----3---3-----3-------3-------3-------3------3-------3-------3-------3--|
|------------------------------------------------------------------------|
|------------------------------------------------------------------------|
|--3---------------------------------------------------------------------|

Outro: Tremolo Picking
|-------------------------------------------------------------------------------|
|-----------------------------------------8-10-11-11-11-10-11-10-8-10-11-11-15--|
|---------------------------------------9---------------------------------------|
|-------------------------------------------------------------------------------|
|--5-7-8s1----7-8------7-8--8-7--7--5-7-----------------------------------------|
|-----------------4--0----------------------------------------------------------|

|-------------------|
|-------------------|
|-------------------|
|--0-2-3-3-5b-6-7---|
|-------------------|
|-------------------|
            
Submit corrections

comments powered by Disqus
↑ Back to top | Muse Tabs for Sing For Absolution. Lyrics for acoustic guitar and electric guitar. 1 Tablatures and chords are parodies/interpretations of the original songs. You may use it for private study, scholarship, research or language learning purposes only