» » »

Sing For Absolution Tabs (ver.1)

Artists:  A B C D E F G H I J K L M N O P Q R S T U V W X Y Z # 

Sing For Absolution Tabs (ver.1)

Muse
Rating:
0/5 (0 votes)

Tabs too difficult? Try these video lessons and learn fast.
                Very cool song. They say I’m too young to do this, so tell me about I if it’s wrong. Note, the first verse picks the melody and what I think is the piano part.


Intro (1st time) + verse 1 (other 2)

E: -1------3-1-0-1------3-1-1-0------1-0---------0
B: ------------------------------------3------3-3-2---
G: ---2-3-----------2-3-----------1------------------
D: ----------------------------------------------------
A: ----------------------------------------------------
E: ---------------------------------------------------- x 3

Then

E: 0-0-0-0
B: 2-2-2-2
G: 2-2-2-2
D: 2-2-2-2
A: 0-0-0-0
E: 0-0-0-0

Chorus1:

E: 0-0-0-0-0-0-0-0-0-0-0-0-0-0-0--3-3-3-3-3-3-3-3-3-3-3-3-3-3-3-3
B: 1-1-1-1-1-1-1-1-1-1-1-1-1-1-1--3-3-3-3-3-3-3-3-3-3-3-3-3-3-3-3
G: 0-0-0-0-0-0-0-0-0-0-0-0-0-0-0--0-0-0-0-0-0-0-0-0-0-0-0-0-0-0-0
D: 2-2-2-2-2-2-2-2-2-2-2-2-2-2-2—0-0-0-0-0-0-0-0-0-0-0-0-0-0-0-0
A: 3-3-3-3-3-3-3-3-3-3-3-3-3-3-3--2-2-2-2-2-2-2-2-2-2-2-2-2-2-2-2
E: 0-0-0-0-0-0-0-0-0-0-0-0-0-0-0--3-3-3-3-3-3-3-3-3-3-3-3-3-3-3-3 x2

After chorus bit (1) + Verse 2 (2 + 3)

E: 1---1---1-1-1---1---1-1-1---1---1-1---1---1---1-1
B: 3---3---3-3-3---3---3-3-3---3---3-3---3---3---3-3
G: 2---2---2-2-2---2---2-2-3---3---3-3---3---3---3-3
D: 0---0---0-0-0---0---0-0-3---3---3-3---3---3---3-3
A: 0---0---0-0-0---0---0-0-1---1---1-1---1---1---1-1
E: 0---0---0-0-0---0---0-0-0---0---0-0---0---0---0-0
Continues…
E: -0---0---0-0-0---0---0-0-0---0---0-0-0---0---0-0
B: -0---0---0-0-0---0---0-0-2---2---2-2-2---2---2-2
G: -1---1---1-1-1---1---1-1-2---2---2-2-2---2---2-2
D: -2---2---2-2-2---2---2-2-2---2---2-2-2---2---2-2
A: -2---2---2-2-2---2---2-2-0---0---0-0-0---0---0-0
E: -0---0---0-0-0---0---0-0-0---0---0-0-0---0---0-0 past two things together x3

Then
E: 0-0-0-0
B: 2-2-2-2
G: 2-2-2-2
D: 2-2-2-2
A: 0-0-0-0
E: 0-0-0-0
Chorus 2

E: 0-0-0-0-0-0-0-0-0-0-0-0-0-0-0--3-3-3-3-3-3-3-3-3-3-3-3-3-3-3-3
B: 1-1-1-1-1-1-1-1-1-1-1-1-1-1-1--3-3-3-3-3-3-3-3-3-3-3-3-3-3-3-3
G: 0-0-0-0-0-0-0-0-0-0-0-0-0-0-0--0-0-0-0-0-0-0-0-0-0-0-0-0-0-0-0
D: 2-2-2-2-2-2-2-2-2-2-2-2-2-2-2—0-0-0-0-0-0-0-0-0-0-0-0-0-0-0-0
A: 3-3-3-3-3-3-3-3-3-3-3-3-3-3-3--2-2-2-2-2-2-2-2-2-2-2-2-2-2-2-2
E: 0-0-0-0-0-0-0-0-0-0-0-0-0-0-0--3-3-3-3-3-3-3-3-3-3-3-3-3-3-3-3 x2

Into

E: 1---1---1-1-1---1---1-1-1---1---1-1---1---1---1-1
B: 3---3---3-3-3---3---3-3-3---3---3-3---3---3---3-3
G: 2---2---2-2-2---2---2-2-3---3---3-3---3---3---3-3
D: 0---0---0-0-0---0---0-0-3---3---3-3---3---3---3-3
A: 0---0---0-0-0---0---0-0-1---1---1-1---1---1---1-1
E: 0---0---0-0-0---0---0-0-0---0---0-0---0---0---0-0
Continues…
E: -0---0---0-0-0---0---0-0-0---0---0-0-0---0---0-0
B: -0---0---0-0-0---0---0-0-2---2---2-2-2---2---2-2
G: -1---1---1-1-1---1---1-1-2---2---2-2-2---2---2-2
D: -2---2---2-2-2---2---2-2-2---2---2-2-2---2---2-2
A: -2---2---2-2-2---2---2-2-0---0---0-0-0---0---0-0
E: -0---0---0-0-0---0---0-0-0---0---0-0-0---0---0-0 (x1)

Chorus 3

E: 0-0-0-0-0-0-0-0-0-0-0-0-0-0-0--3-3-3-3-3-3-3-3-3-3-3-3-3-3-3-3
B: 1-1-1-1-1-1-1-1-1-1-1-1-1-1-1--3-3-3-3-3-3-3-3-3-3-3-3-3-3-3-3
G: 0-0-0-0-0-0-0-0-0-0-0-0-0-0-0--0-0-0-0-0-0-0-0-0-0-0-0-0-0-0-0
D: 2-2-2-2-2-2-2-2-2-2-2-2-2-2-2—0-0-0-0-0-0-0-0-0-0-0-0-0-0-0-0
A: 3-3-3-3-3-3-3-3-3-3-3-3-3-3-3--2-2-2-2-2-2-2-2-2-2-2-2-2-2-2-2
E: 0-0-0-0-0-0-0-0-0-0-0-0-0-0-0--3-3-3-3-3-3-3-3-3-3-3-3-3-3-3-3 x2

And finally

E: -1- ……-1- ……-0-……-0-……-1
B: -3-……-3- ……-0-……-2-……-3
G: -2-……-3- ……-1-……-2-……-2
D: -0-……-3- ……-2-……-2-……-0
A: -0-……-0- ……-2-……-0-……-0
E: -0-……-0- ……-0-……-0-……-0
            
Tabs too difficult? Try these video lessons and learn fast.




comments powered by Disqus
↑ Back to top | Tablatures and chords are parodies/interpretations of the original songs. You may use it for private study, scholarship, research or language learning purposes only