>
 >
Muscle Museum 2

Muscle Museum 2 Guitar Tabs

Muse - Muscle Museum 2 chords, tabs, tablatures, lyrics

Guitar lessons | Add/correct | Request | Top 50 tabs Artists:  A B C D E F G H I J K L M N O P Q R S T U V W X Y Z 0-9

Muscle Museum 2 Guitar Tabs – Muse

CD, Sheet music, Poster

Do you like Muscle Museum 2? Share with your friends now
Bass TabsBass Tabs v2Bass Tabs v3ChordsChords v2Drum TabsTabsTabs v2Tabs v3Tabs v4Tabs v5

Key: \ / = slide    ^ = bend up

Main riff.

e. -5-5-5-5-5-5-5-5--9--9--9-7-7-7-5-5-5\2/4-4-4-7-7-7-5-5-5-4-4-4\2/5-5-5--9--9--9-
b. -7-7-7-7-7-7-7-7-10-10-10-9-9-9-7-7-7\4/6-6-6-9-9-9-7-7-7-6-6-6\4/7-7-7-10-10-10-
g. ---------------------------------------------------------------------------------
d. ---------------------------------------------------------------------------------
a. --------------------------------------------------------------------------------- 
e. ---------------------------------------------------------------------------------


e. --9--9--9-10-10-10-10-10-10-10---------------------------------------------------
b. -11-11-11-12-12-12-12-12-12-12---------------------------------------------------
g. ---------------------------------------------------------------------------------
d. ---------------------------------------------------------------------------------
a. ---------------------------------------------------------------------------------
e. ---------------------------------------------------------------------------------     

do this twice except only play the last note once           


Pre-chorus:

    f#m               c#

e. --------5-2-2-2-2---------4------------------------------------------------------
b. -----------2-2-2-----------6-^6-6------------------------------------------------
g. ----------------------------6--6-6-----------------------------------------------
d. -------------------6-6-6---------------4-4-4-4-4-4-4-6-6-6-6-6-6-6-7-7-7-7-7-7-7-
a. -4-4-4-------------4-4-4---------------5-5-5-5-5-5-5-5-5-5-5-5-5-5-5-5-5-5-5-5-5-
e. -2-2-2---------------------------------------------------------------------------     




e. ---------------
b. ---------------
g. ---------------
d. -7-7-7-7-7-7-7-
a. -5-5-5-5-5-5-5-
e. ---------------

Chorus:

    F#m                          c#m                              

e. ---------------------------------------------------------------------------------
b. ---------------------------------------------------------------------------------
g. ---------------------------------------------------------------------------------
d. ---------------------------------------------------------------------------------
a. -4-4-4-4-4-----4-4-4-4-4-----11-11-11-11-11-----11-11-11-11-11-----4-4-4-4-4-----
e. -2-2-2-2-2-----2-2-2-2-2------9--9--9--9--9------9--9--9--9--9-----2-2-2-2-2-----

                    bm

e.   ----------------------------------------                   
b.   ----------------------------------------
g.   ----------------------------------------
d.   ----------------------------------------
a.   -4-4-4-4-4-----9-9-9-9-9------9-9-9-9-9-                   play twice.
e.   -2-2-2-2-2-----7-7-7-7-7------7-7-7-7-7-

if u want to get it like the recording, a second guitarist could play broken chords(use chords given)

then play this. (scream bit after chorus)

e.   -------------------------------
b.   -------------------------------
g.   -------------------------------
d.   -6-6-6-6-6-6-6-6-6-6-6-6-6-6-7-
a.   -7-7-7-7-7-7-7-8-8-8-8-8-8-8-9-
e.   -------------------------------

play the first guitar riff again (once)

verse guitar 1:

..played in every toilet...                                    hammer-ons

          e. -----------------------------------------------------------------------
          b. -----^2----------------------------------------------------------------
          g. ----2---------------------------------------------5-6-5-6-5-6-5-6-5-6--
          d. --4---4----------------------------------------------------------------
          a. -4---------------------------------------------------------------------
          e. -----------------------------------------------------------------------

verse guitar 2:

e. ---------------------------------------------------------------------------------
b. ---------------------------------------------------------------------------------
g. ------2-2------2-2------2-2------2-2-1-1------1-1------1-1------1-1----------2-2-
d. ------------------------------------------3-3------3-3------3-3------3-0---------
a. -4-4------4-4------4-4------4-4------------------------------------------4-4-----
e. ---------------------------------------------------------------------------------


e.   ---------------------------------------------------------------
b.   -----------------------------3-3--------------3-3--------------
g.   ------2-2------2-2------2-2------4-4-----4-4------4-4------4-4-
d.   -------------------------------------4-4---------------4-4-----
a.   -4-4------4-4------4-4-----------------------------------------
e.   ---------------------------------------------------------------

play pre chorus,
chorus

Outro:  (sorry just chords I haven’t worked out the solo!)


e. ---------------------------------------------------------------------------------
b. ---------------------------------------------------------------------------------
g. ---------------------------------------------------------------------------------
d. -6-6-6-6-6-6-6-6-6-6-6-6-6-6-6-6-7-7-7-7-9-9-9-9-7-7-7-7-7-7-7-7-----------------
a. -7-7-7-7-7-7-7-7-8-8-8-8-8-8-8-8-9-9-9-9-7-7-7-7-5-5-5-5-5-5-5-5----------------- 
e. ---------------------------------------------------------------------------------


e. -----------------------------------------           -------------------------
b. -----------------------------------------           -------------------------
g. -----------------------------------------           -------------------------
d. -----------------------------------------           -------------------------
a. -7-7-7-7-7-7-7-7-11-11-11-11-11-11-11-11-           -4-4-4-4-9-9-7-6-4-4-4-4-
e. -5-5-5-5-5-5-5-5--9--9--9--9--9--9--9--9-           -2-2-2-2-7-7-5-4-2-2-2-2-  x4 
                                                                                                                                       
thanks for lookin at my tab!





Comments


Popular Muse tabs & chords
Interlude 2 Bass Tabs
Animals 1 Chords
Mk Ultra Chords
Assassin 1 Tabs
Guiding Light 5 Tabs
Invincible 1 Tabs
Plug In Baby Intro Tabs
Stockholm Syndrome 1 Tabs
Unintended 1 Tabs
Map Of The Problematique Ukulele


Song lyrics



↑ Back to top | Tablatures and chords are parodies/interpretations of the original songs. You may use it for private study, scholarship, research or language learning purposes only
© 2014 AZChords.com Contact us | Privacy policy | DMCA | Add/correct tabs | Request tabs | Top 50 tabs