» » »

Muse, Muscle Museum Bass tabs (ver.1)

Artists:  A B C D E F G H I J K L M N O P Q R S T U V W X Y Z # 

Muscle Museum Bass tabs (ver.1)

Muse Tabs
 Rating:
4/5 (4 votes)
Muscle Museum lessons Tabs too difficult? Try these video lessons and learn fast
1
                Album:Showbiz

Slide up: /
Slide down: \
Muted String: x
Let Ring: ~

Intro
G//-------------------------------------------------/
D//-4---4---4---4---4---4---4---4---4---4---4---4---/
A//---4---4---4---4---4---4---4---4---4---4---4---4-/
E//-------------------------------------------------/

G//-------------------------------6-7-4-------------/
D//-----------------4---4---4---4-------4-0---0-2-3-/
A//-4---4---4---4-----4---4---4-------------2-------/
E//---4---4---4---4---------------------------------/

G//---------------------------------------------6-7-4-------------/
D//---4---4---4---4-------------------4---4---4-------4-0---0-2-3-/
A//-4---4---4---4---4---4---4---4---4---4---4-------------2-------/
E//-------------------4---4---4---4-------------------------------/

Verse
G//---------------------------------------------6-7-4-------------/
D//---4---4---4---4-------------------4---4---4-------4-0---0-2-3-/ (x4)
A//-4---4---4---4---4---4---4---4---4---4---4-------------2-------/
E//-------------------4---4---4---4-------------------------------/

Pre-Chorus
G//----------------------------------------------------------------/
D//----------------------------12121212121212121212121212121212----/
A//----------5555555555555555-/---------------------------------9\-/
E//-222--444-------------------------------------------------------/

Chorus
G//----------------------------------------------------------/
D//----------------------------------------------------------/
A//--------------444-4-4-444-4-4--------------222-2--2-0---0-/
E//-222-2--222-2-----------------222-2--222-2------------4---/

G//------------------------------------------------------/
D//-------------------------------------------------2----/
A//-----------444-4-4-444-4-4-------------222-2-222---22-/
E//-222-222-2-----------------222-2-222-2----------------/

Pre-Verse1
G//-----------------------------------------/
D//-----------------------------------------/
A//-----------------------------------------/
E//-0-0-0-0-0-0-0-0-1-1-1-1-1-1-1-1-1-1-1-1-/

Pre-Verse2
G//-------------------------------------------------/
D//-4---4---4---4---4---4---4---4---4---4---4---4---/
A//---4---4---4---4---4---4---4---4---4---4---4---4-/
E//-------------------------------------------------/

G//-------------------------------6-7-4-------------/
D//-----------------4---4---4---4-------4-0---0-2-3-/
A//-4---4---4---4-----4---4---4-------------2-------/
E//---4---4---4---4---------------------------------/

Verse2
G//---------------------------------------------6-7-4-------------/
D//---4---4---4---4-------------------4---4---4-------4-0---0-2-3-/ (x2)
A//-4---4---4---4---4---4---4---4---4---4---4-------------2-------/
E//-------------------4---4---4---4-------------------------------/

Pre-Chorus
G//----------------------------------------------------------------/
D//----------------------------12121212121212121212121212121212----/
A//----------5555555555555555-/---------------------------------9\-/
E//-222--444-------------------------------------------------------/

Chorus
G//----------------------------------------------------------/
D//----------------------------------------------------------/
A//--------------444-4-4-444-4-4--------------222-2--2-0---0-/
E//-222-2--222-2-----------------222-2--222-2------------4---/

G//------------------------------------------------------/
D//-------------------------------------------------2----/
A//-----------444-4-4-444-4-4-------------222-2-222---22-/
E//-222-222-2-----------------222-2-222-2----------------/

Outro
G//--------------------------------------------------/
D//--------------------------------------------------/
A//--------------------------------------------------/
E//-0-0-0-0-0--0-0-0-1-1-1-1-1-1-1-1-2-2-2-2-0-0-0-0-/

G//------------------------------------------------------------------/
D//------------------------------------------------------------------/
A//-5-5-5-5-5-5-5-5\-------------------------------------------------/
E//-----------------0-0-0-0-0--0-0-0-1-1-1-1-1-1-1-1-2-2-2-2-0-0-0-0-/

G//-----------------------------------------------------------/
D//-----------------------------------------------------------/
A//-5-5-5-5-5-5-5-5/x\----------------------------------------/
E//-------------------5-5-5-5-5-5-5-5-4-4-4-4-4-4-4-4-2-2-2-2-/

G//--------------------------------------------------------------/
D//--------------------------------------------------------------/
A//-222-0-----------222-0----------0-222-0----------0-222-0------/
E//-------4-2-2-2-2-------4--2-2-4---------4--2-2-4---------4-2~-/
            
Submit corrections

comments powered by Disqus
↑ Back to top | Muse Bass for Muscle Museum. Lyrics for acoustic guitar and electric guitar. 1 Tablatures and chords are parodies/interpretations of the original songs. You may use it for private study, scholarship, research or language learning purposes only