>
 >
Knights Of Cydonia 4

Knights Of Cydonia 4 Bass Tabs

Muse - Knights Of Cydonia 4 chords, tabs, tablatures, lyrics

Guitar lessons | Add/correct | Request | Top 50 tabs Artists:  A B C D E F G H I J K L M N O P Q R S T U V W X Y Z 0-9

Knights Of Cydonia 4 Bass Tabs – Muse

CD, Sheet music, Poster

Do you like Knights Of Cydonia 4? Share with your friends now
Bass TabsBass Tabs v2Bass Tabs v3Bass Tabs v4ChordsChords v2Chords v3Drum TabsTabsTabs v2Tabs v3Tabs v4Tabs v5Tabs v6Ukulele

the beginning!
G||---------------------------------------|---a-----------------------------------|
D||---------------------------------------|---------------------------------------|
A||---------------------------------------|---------------------------------------|
E||--0---------2---------3----------------|--5--------5--------7------------------| x4


these figures are meant to be played with that 'gallopping' rhythm.
listen to the song for an idea.
G||-------------------------------------------------------------------------|
D||-------------------------------------------------------------------------|
A||-------------------------------------------------------------------------|
E||--0--------0--------0-------0--------0--------0--------0-------0---------|

G||-------------------------------------------------------------------------|
D||-------------------------------------------------------------------------|
A||--------------------3----------------2--------3--------6-----------------|
E||--0--------3----------------3----------------------------------3---------|

G||-------------------------------------------------------------------------|
D||-------------------------------------------------------------------------|
A||--3-------------------------6--------------------------6-----------------|
E||-----------3--------4----------------3--------4----------------3---------|

G||-------------------------------------------------------------------------|
D||-------------------------------------------------------------------------|
A||--3--------3--------3-------3--------3--------3--------3-------3---------|
E||-------------------------------------------------------------------------|

G||-------------------------------------------------------------------------|
D||-------------------------------------------------------------------------|
A||--3--------6----------------6--------------------------2-------6---------|
E||--------------------4----------------3--------4--------------------------|

G||-------------------------------------------------------------------------|
D||-------------------------------------------------------------------------|
A||-----------6--------7----------------6--------7----------------7---------|
E||--4-------------------------7--------------------------7-----------------|

G||-------------------------------------------------------------------------|
D||-------------------------------------------------------------------------|
A||-------------------------------------------------------------------------|
E||--4--------4--------4-------4--------4--------4--------4-------4---------|

G||-------------------------------------------------------------------------|
D||-------------------------------------------------------------------------|
A||--------------------7----------------6--------7--------------------------|
E||--4--------7----------------7--------------------------3-------7---------|

G||-------------------------------------------------------------------------|
D||-------------------------------------------------------------------------|
A||--7-----------------3----------------2--------3----------------2---------|
E||-----------7----------------3--------------------------3-----------------|

G||-------------------------------------------------------------------------|
D||-------------------------------------------------------------------------|
A||-------------------------------------------------------------------------|
E||--0--------0--------0-------0--------0--------0--------0-------0---------|

beginning riff again
G||---------------------------------------|---------------------------------------|
D||---------------------------------------|---------------------------------------|
A||---------------------------------------|---------------------------------------|
E||--0---------2---------3----------------|--5--------5--------7------------------| x4

G||-------------------------------------------------------------------------|
D||-------------------------------------------------------------------------|
A||-------------------------------------------------------------------------|
E||--0--------0--------0-------0--------0--------0--------0-------0---------|


the synth bit!  tap left and right hand, if you can tap you should be able to figure
it out soon.  not sure about positions, but notes are right.
G||--------------------------------9------|--------------------------------9------|
D||----------------------9------9---------|----------------------9------9---------|
A||--7-----7--10--7--10-----10------------|--7-----7--10--7--10-----10------------|
E||-----7---------------------------------|-----7---------------------------------|

G||--------------------------------7------|--------------------------------7------|
D||----------------------9------9---------|----------------------9------9---------|
A||--5-----5--9------9------9-------------|--5-----5---9------9------9------------|
E||-----7--------10-----------------------|-----7--------10-----------------------|

G||--------------------------------6------|--------------------------------6------|
D||----------------------7------7---------|----------------------7------7---------|
A||--4-----4--7------7------7-------------|--4-----4---7------7------7------------|
E||-----5---------9-----------------------|-----5---------9-----------------------|

G||--------------------------------9------|--------------------------------9------|
D||----------------------9------9---------|----------------------9------9---------|
A||--7-----7--10--7--10-----10------------|--7-----7--10--7--10-----10------------|
E||-----7---------------------------------|-----7---------------------------------|

G||--------------------------------9------|--------------------------------9------|
D||----------------------9------9---------|----------------------9------9---------|
A||--7-----7--10--7--10-----10------------|--7-----7--10--7--10-----10------------|
E||-----7---------------------------------|-----7---------------------------------|

G||--------------------------------7------|--------------------------------7------|
D||----------------------9------9---------|----------------------9------9---------|
A||--5-----5--9------9------9-------------|--5-----5---9------9------9------------|
E||-----7--------10-----------------------|-----7--------10-----------------------|

G||--------------------------------6------|--------------------------------6------|
D||----------------------7------7---------|----------------------7------7---------|
A||--4-----4--7------7------7-------------|--4-----4---7------7------7------------|
E||-----5---------9-----------------------|-----5---------9-----------------------|

G||--------------------------------9------|--------------------------------9------|
D||----------------------9------9---------|----------------------9------9---------|
A||--7-----7--10--7--10-----10------------|--7-----7--10--7--10-----10------------|
E||-----7---------------------------------|-----7---------------------------------|

G||--------------------------------9------|--------------------------------9------|
D||----------------------9------9---------|----------------------9------9---------|
A||--7-----7--10--7--10-----10------------|--7-----7--10--7--10-----10------------|
E||-----7---------------------------------|-----7---------------------------------|

G||--------------------------------11-----|--------------------------------11-----|
D||------------9------9--12--9--12--------|------------9------9--12--9--12--------|
A||--9-----9------9-----------------------|--9-----9------9-----------------------|
E||----10---------------------------------|----10---------------------------------|

G||--------------------------------14-----|--------------------------------14-----|
D||----------11----11--14--11--14---------|----------11----11--14--11--14---------|
A||-12----12----12------------------------|-12----12----12------------------------|
E||----12---------------------------------|----12---------------------------------|

G||---------------------9------9---12-----|---------------------9------9---12-----|
D||-----------9-----9------9--------------|-----------9-----9------9--------------|
A||-10----10----10------------------------|-10----10----10------------------------|
E||----12---------------------------------|----12---------------------------------|

G||---------------------9------9---12-----|---------------------9------9---12-----|
D||-----------9-----9------9--------------|-----------9-----9------9--------------|
A||-10----10----10------------------------|-10----10----10------------------------|
E||----12---------------------------------|----12---------------------------------|

G||--------------------------------16-----|--------------------------------16-----|
D||----------------------16----16---------|----------------------16----16---------|
A||-14----14--17--14--17----17------------|-14----14--17--14--17----17------------|
E||----14---------------------------------|----14---------------------------------|

G||--------------------------------18-----|--------------------------------18-----|
D||--------------------19------19---------|--------------------19------19---------|
A||-16----16-19-16-19------19-------------|-16----16-19-16-19------19-------------|
E||----17---------------------------------|----17---------------------------------|

G||--------------------------------21-----|--------------------------------21-----|
D||-----------17------17-21-17-21---------|-----------17------17-21-17-21---------|
A||-19----19------19----------------------|-19----19------19----------------------|
E||----19---------------------------------|----19---------------------------------|

the rock-out bit after the synth bit
G||-------------------------------------------------------------------------|
D||-------------------------------------------------------------------------|
A||--------------------------------------------------------------10---------|
E||--10h12-12-12---12-10h12-12-12---12-10h12-12-12---12-10h12-12------------|

G||-------------------------------------------------------------------------|
D||-------------------------------------------------------------------------|
A||------------------------------------------------------------5h-7--7------|
E||--10p-7--7--7---7--10p-7--7--7---7--10p-7--7--7---7--10p-7---------------|

G||-------------------------------------------------------------------------|
D||-------------------------------------------------------------------------|
A||---7p-0--0--0---0---0--0--0--0---0---0--0--0--0---0--7p--0---------------|
E||------------------------------------------------------------7p-6p-5------|

G||-------------------------------------------------------------------------|
D||-------------------------------------------------------------------------|
A||-------------------------------------------------------------------------|
E||---3p-0--0--0---0---3p-0--0--0---0---3p-0--0--0---0--3p--0h-5h-7---------|
x6

G||-------------------------------------------------------------------------|
D||-------------------------------------------------------------------------|
A||-------------------------------------------------------------------------|
E||---0--0--0--0---0---0--0--0--0---0---0--0--0--0---0--0---0--0--0--0---0--|
x3

finish with
G||-------------------------------------------------------------------------|
D||-------------------------------------------------------------------------|
A||-------------------------------------------------------------------------|
E||---0--0--0--0---0---0--0--0--0---0---0--0--0--0---0--0---0--5h-6h-7---0--|





Comments


Popular Muse tabs & chords
Butterflies And Hurricanes 3 Bass Tabs
The Smallprint 1 Bass Tabs
Explorers 1 Chords
Megalomania Chords
Blackout 3 Tabs
Can Take My Eyes Off You Tabs
City Of Delusion Tabs
Endlessly Tabs
Madness 5 Tabs
Time Is Running Out Correct Tabs


Song lyrics



↑ Back to top | Tablatures and chords are parodies/interpretations of the original songs. You may use it for private study, scholarship, research or language learning purposes only
© 2014 AZChords.com Contact us | Privacy policy | DMCA | Add/correct tabs | Request tabs | Top 50 tabs